» » »

Only A Lad Tabs (ver.1)

Artists:  A B C D E F G H I J K L M N O P Q R S T U V W X Y Z # 

Only A Lad Tabs (ver.1)

Oingo Boingo
Rating:
1/5 (3 votes)

Hard to play? Try these video lessons and learn fast.
                "Only A Lad" by Oingo Boingo
Taken from "Best O' Boingo"

This song is much easier if  you use standard tuning, but change the low E to a D.

e-------------------------------------------------------------------|
b-------------------------------------------------------------------|
g-------------------------------------------------------------------|
d-7-7-7---------6-6-6---------5-5-5---4-4-4------5-5-5--------6-6-6-| X3
a-------------------------------------------------------------------|
d-------------------------------------------------------------------|

e---------------------------------------------------------------|
b---------------------------------------------------------------|
g---------------------------------------------------------------|
d-9-----8---X-X-X-7-----6---X-X-X-5-X-X-4--X-0---0-0---0--------| X4
a-9-----9---X-X-X-7-----7---X-X-X-5-X-X-5--X-0---0-0---0---9h12-|
d------------------------------------------X-0---0-0---0--------|


e------------------------------------|
b------------------------------------|
g------------------------------------|
d------0-----0--4-------0------------|
a-0-2------2-------0-2-----2----2----|
d----------------------------5-----5-|

e---------------------------------|
b---------------------------------|
g---------------------------------|
d-X-X-7-7-X-X-7---X-X-9-9-9-9-9---| X2
a-X-X-7-7-X-X-7---X-X-9-9-9-9-9---|
d-X-X-7-7-X-X-7---X-X-9-9-9-9-9---|

e------------------------------------|
b------------------------------------|
g------------------------------------|
d------0-----0--4-------0------------|
a-0-2------2-------0-2-----2----2----|
d----------------------------5-----5-|

e---------------------------------|
b---------------------------------|
g---------------------------------|
d-X-X-7-7-X-X-7---X-X-9-9-9-9-9---| X2
a-X-X-7-7-X-X-7---X-X-9-9-9-9-9---|
d-X-X-7-7-X-X-7---X-X-9-9-9-9-9---|

e---------------------------------------------------------------|
b---------------------------------------------------------------|
g---------------------------------------------------------------|
d-9-----8---X-X-X-7-----6---X-X-X-5-X-X-4--X-0---0-0---0--------| X2
a-9-----9---X-X-X-7-----7---X-X-X-5-X-X-5--X-0---0-0---0---9h12-|
d------------------------------------------X-0---0-0---0--------|

e------------------------------------|
b------------------------------------|
g------------------------------------|
d------0-----0--4-------0------------|
a-0-2------2-------0-2-----2----2----|
d----------------------------5-----5-|

e---------------------------------|
b---------------------------------|
g---------------------------------|
d-X-X-7-7-X-X-7---X-X-9-9-9-9-9---|
a-X-X-7-7-X-X-7---X-X-9-9-9-9-9---|
d-X-X-7-7-X-X-7---X-X-9-9-9-9-9---|

e---------------------------------|
b---------------------------------|
g---------------------------------|
d-X-X-7-7-X-X-7---9---------------|
a-X-X-7-7-X-X-7---9---------------|
d-X-X-7-7-X-X-7---9---------------|

e---------------------------------|
b---------------------------------|
g---------------------------------|
d-7-9-9-9-7-9---------------------| X3
a-7-9-9-9-7-9-----------2---------|
d-7-9-9-9-7-9-----5-----------5---|

e-----------------|
b-----------------|
g-------------2---|
d-----2-----4-----|
a-0-4-----5-------|
d-----------------|

e---------------------------------|
b---------------------------------|
g---------------------------------|
d-7-9-9-9-7-9---------------------| X3
a-7-9-9-9-7-9-----------2---------|
d-7-9-9-9-7-9-----5-----------5---|

e-----------------|
b-----------------|
g-------------2---|
d-----2-----4-----|
a-0-4-----5-------|
d-----------------|

e-----------------|
b-----------------|
g-2-0-------------|
d-----4-2-0-------|
a-----------4-2-0-|
d-----------------|

e---------------------------------------------------------------|
b---------------------------------------------------------------|
g---------------------------------------------------------------|
d-9-----8---X-X-X-7-----6---X-X-X-5-X-X-4--X-0---0-0---0--------| X2
a-9-----9---X-X-X-7-----7---X-X-X-5-X-X-5--X-0---0-0---0---9h12-|
d------------------------------------------X-0---0-0---0--------|

e-----3-----2---0-|
b---------3---2---|
g---4---4---------|
d-5---------------|
a-----------------|
d-----------------|

e-------------------------|
b-------------------------|
g-------------------------|
d-9-----8---X-X-X-7-----6-|
a-9-----9---X-X-X-7-----7-|
d-------------------------|

e-----3-----2---0-----2-0-|
b---------3---2-----2-----|
g---4---4---------3-------|
d-5-----------------------|
a-------------------------|
d-------------------------|

All I have so Far.
            
Hard to play? Try these video lessons and learn fast. | Correct




comments powered by Disqus
↑ Back to top | Tablatures and chords are parodies/interpretations of the original songs. You may use it for private study, scholarship, research or language learning purposes only