>
 >
 >
Tunnel

Tunnel Guitar Tabs

Oil - Tunnel chords, tabs, tablatures, lyrics

Guitar lessons | Add/correct | Request | Top 50 tabs Artists:  A B C D E F G H I J K L M N O P Q R S T U V W X Y Z 0-9

Tunnel Guitar Tabs – Oil

CD, Sheet music, Poster

Do you like Tunnel? Share with your friends now
Tabs
Tuning: Eb Ab Db Gb Bb Eb

*** NOTE: this can be simpler in Standard Tuning (EADGBE) ***

Intro/Main Riff

|---------------------|
|---------------------|
|-----10-9-7~-5-5-7-7-|
|-7~~--8-7-5~-3-3-5-5-|
|-5~~-----------------|
|---------------------|

Verses

Riff A
|------------------------------------|
|------------------------------------|
|-------------------------5~-5-5-5-5-|
|-5~-5-5-5-5--3~-3-3-3-3--5~-5-5-5-5-|
|-5~-5-5-5-5--3~-3-3-3-3--3~-3-3-3-3-|
|-3~-3-3-3-3--1~-1-1-1-1-------------|

Riff B                         Riff C
|----------------------------| |-------------------------------|
|----------------------------| |-------------------------------|
|----------------------------| |-------------------------------|
|--------3-5-5---------3-5-5-| |-------------------------------|
|----------------------------| |---------3-5------------3-5----|
|1-3-3-1-------1-3-3-1-------| |-1-3-3-1-----6-3--3-3-1-----6~-|
 * * * *       * * * *           * * * *          * * *

Riff D
|------------------------------------------------|
|------------------------------------------------|
|------------------------------------------------|
|-8~-8-8-8-8--8~-8-8-8-8--3~-3-3-3-3--3~-3-3-3-3-|
|-8~-8-8-8-8--8~-8-8-8-8--3~-3-3-3-3--3~-3-3-3-3-|
|-6~-6-6-6-6--6~-6-6-6-6--1~-1-1-1-1--1~-1-1-1-1-|

Lead Line/Outro - Riff A
|----------------------------------------|
|----------------------------------------|
|-----------10-12-12-----------10-12-12~~|
|----------------------------------------|
|-8-10-10-8---------8~-10-10-8-----------|
|----------------------------------------|

Lead Line/Outro - Riff B
|----------------------------------------|
|----------------------------------------|
|----------------------------------------|
|-----------10/12-8-------------10/12-8~-|
|-8-10-10-8---------10~-10-10-8----------|
|----------------------------------------|

Outro - End Chord
|---------|
|---------|
|---------|
|--8~~~~~-|
|-10~~~~~-|
|---------|





Comments


Popular Oil tabs & chords
Be Like Me Tabs
Drag Me Down Tabs
Dropped Tabs
Drying Up Tabs
No One Hears Tabs
Thanks For The Ride Tabs


Song lyrics



↑ Back to top | Tablatures and chords are parodies/interpretations of the original songs. You may use it for private study, scholarship, research or language learning purposes only
© 2014 AZChords.com Contact us | Privacy policy | DMCA | Add/correct tabs | Request tabs | Top 50 tabs