» » »

Oil, No One Hears Tabs (ver.1)

Artists:  A B C D E F G H I J K L M N O P Q R S T U V W X Y Z # 

No One Hears Tabs (ver.1)

Oil Tabs
 Rating:
4/5 (4 votes)
No One Hears lessons Tabs too difficult? Try these video lessons and learn fast
                Tuning: DGCFAD

Intro:

|--------------------------------------------------|
|--------------------------------------------------|
|--------------------------------------------------|
|-------------------------10-10-10-10-10-10-10-10--|
|--------------------------8--8--8--8--8--8--8--8--|
|-8~-11-8-11-8-11--8-6-6~~-------------------------|

|---------------------------------|
|---------------------------------|
|---------------------------------|
|---------------------------------|
|--------------------------5-6-8--|
|-8~-11-8-11-8-11--8-6-4~~--------|

Verse Riff:

|----------------------|  |--------------------|
|----------------------|  |--------------------|
|----------------------|  |----------8/10-8----|
|----------------------|  |---5-6-----------10-|
|---6----------6-8-6---|  |-------6------------|
|-8---8--8-8-8-------8-|  |-4------------------|

Chorus: (Similar to Intro Riff)

|---------------------------------------------------------|
|---------------------------------------------------------|
|------------------10-10-10-10----------------------------|
|-10-10--6-6--8-8----------------10-10--6-6--8-8----------|
|-10-10--6-6--8-8---8--8--8--8---10-10--6-6--8-8--5-6/7-6-|
|--8--8--4-4--6-6-----------------8--8--4-4--6-6----------|

Break Down 1:

|------------------------------|
|------------------------------|
|------------------------------|
|------------------------------|
|---6---------------6----------|
|-8---8--8-8-8----8---8--8-8-8-|

Break Down 2: 

|-------------------------------------|
|-------------------------------------|
|-------------------------------------|
|-------------------------------------|
|-----------6--8----------6--8/10/8-6-|
|-8-8--8-8-------8-8-8-8--------------|

Outro: (Verse Riff gradually speeding up)
            
Submit corrections

comments powered by Disqus
↑ Back to top | Oil Tabs for No One Hears. Lyrics for acoustic guitar and electric guitar. Tablatures and chords are parodies/interpretations of the original songs. You may use it for private study, scholarship, research or language learning purposes only