» » »

Oil, Be Like Me Tabs (ver.1)

Artists:  A B C D E F G H I J K L M N O P Q R S T U V W X Y Z # 

Be Like Me Tabs (ver.1)

Oil Tabs
 Rating:
4.2/5 (5 votes)
Be Like Me lessons Tabs too difficult? Try these video lessons and learn fast
                Tuning: Standard (EADGBE)

Intro/Break:
|---------------------------------|
|-7-7-7-6-6-4-4-4-7-7-7-4-4-6-6-4-|
|-6-6-6-6-6-4-4-4-6-6-6-4-4-6-6-4-|
|-4-4-4-4-4-4-4-4-4-4-4-4-4-4-4-4-|
|-4-4-4-4-4-4-4-4-4-4-4-4-4-4-4-4-|
|---------------------------------|

Main Riff/Verses:    Lead Break:

|--------------|     |-------------------|
|----7-7-------|     |-------------------|
|-8--6-6-6-6-6-|     |-68888888-68888866-|
|-8--4-4-6-6-6-|     |-------------------|
|-6------4-4-4-|     |-------------------|
|--------------|     |-------------------|

|-----------------------------|
|-----------------------------|
|-4-4-4-4-4-4-4-4-------------|
|-4-4-4-4-4-4-4-4-2-2-2-2-2-2-|
|-2-2-2-2-2-2-2-2-2-2-2-2-2-2-|
|-----------------0-0-0-0-0-0-|

Pre-Chorus: (I can't take anymore...)

|----------------|
|----------------|
|----------------|
|--------2-2h4-4-|
|-2-5-0----------|

Chorus:

|-2-2-2-2-3-3-3-3-3-3-3-3-5-5-5-5-|
|-2-2-2-2-3-3-3-3-3-3-3-3-5-5-5-5-|
|-4-4-4-4-5-5-5-5-4-4-4-4-6-6-6-6-|
|-4-4-4-4-5-5-5-5-5-5-5-5-7-7-7-7-|
|-2-2-2-2-3-3-3-3-5-5-5-5-7-7-7-7-|
|-----------------3-3-3-3-5-5-5-5-|
|---------------------------------|

Outro:

|----------------------------------------|
|----------------------------------------|
|-11-11-11-10-10-8-8--11-11-11-8-8-10-10-|
|----------------------------------------|
|--9--9--9--8--8-6-6---9--9--9-6-6--8--8-|
|----------------------------------------|

|------|
|------|
|-8~~~-|
|-8~~~-|
|-6~~~-|
|------|
            
Submit corrections

comments powered by Disqus
↑ Back to top | Oil Tabs for Be Like Me. Lyrics for acoustic guitar and electric guitar. Tablatures and chords are parodies/interpretations of the original songs. You may use it for private study, scholarship, research or language learning purposes only