>
 >
World Without A Sun

World Without A Sun Guitar Tabs

Oh Sleeper - World Without A Sun chords, tabs, tablatures, lyrics

Guitar lessons | Add/correct | Request | Top 50 tabs Artists:  A B C D E F G H I J K L M N O P Q R S T U V W X Y Z 0-9

World Without A Sun Guitar Tabs – Oh Sleeper

CD, Sheet music, Poster

Do you like World Without A Sun? Share with your friends now
Bass TabsBass Tabs v2Tabs
-----------------------------------------------------------------------------
                             World Without A Sun - Oh, Sleeper
-----------------------------------------------------------------------------


Tuning: Drop D (DADGBE)

If you can find any mistakes then please comment and I'll fix it.

Intro (The 20 on the A string can be switched with a 15 on the D string if you find that
to play)
e|-22-17----17----------------------17-18-17----------------------|
B|-------18----18----------------18----------18-------------------|
G|----------------19----------19----------------19----------------|
D|-------------------19----19----------------------19-17-15-17-15-|
A|----------------------20----------------------------------------|
D|----------------------------------------------------------------|

e|-17-16----16-------------------------15-------------------------12-13-12-|
B|-------17----17-------------------------17-14-17-14----------14----------|
G|----------------18-16-15----15-16-18----------------15-12-15-------------|
D|-------------------------18----------------------------------------------|
A|-------------------------------------------------------------------------|
D|-------------------------------------------------------------------------|x2

e|-------------------------------------------------------------|
B|-------------------------------------------------------------|
G|-15-14----14-17-14----------15-14-15-14----14-17-14----------|
D|-------16----------16-13-16-------------16----------16-13-16-|
A|-------------------------------------------------------------|
D|-------------------------------------------------------------|

e|-------------------------------------------|
B|-------------------------------------------|
G|-15-14-15-14----14-17-14----------14-15-14-|
D|-------------16----------16-13-16----------|
A|-------------------------------------------|
D|-------------------------------------------|

e|------------------------------------------------------------------|
B|------------------------------------------------------------------|
G|------------------------------------------------------------------|
D|-8-7---7-10-7-------8-7-8-7---7-10-7-------8-7-8-7---7-10-7-------|
A|-----9--------9-6-9---------9--------9-6-9---------9--------9-6-9-|
D|------------------------------------------------------------------|

e|--------------------------------------------------------------------------------|
B|--------------------------------------------------------------------------------|
G|--------------------------------------------------------------------------------|
D|-8-7-8-7-8-7---7-10-7-------8-7-8-7---7-10-7-------8-7-8-7---7-10-7-------7-8-7-|
A|-------------9--------9-6-9---------9--------9-6-9---------9--------9-6-9-------|
D|--------------------------------------------------------------------------------|

Part A (the 7/3's are played over the rhythm part)
e|------------------------------------------------------|
B|-11-11-11-11-11-10-10-10-10---------------------------|
G|-10-10-10-10-10-9--9--9--9----3~~---3~~---3~~---3~~---|
D|-8--8--8--8--8--7--7--7--7----7~~---7~~---7~~---7~~---|
A|-8--8--8--8--8--7--7--7--7----------------------------|
D|-8--8--8--8--8--7--7--7--7----------------------------|

e|----------------------------|
B|-11-11-11-11-11-10-10-10-10-|
G|-10-10-10-10-10-9--9--9--9--|
D|-8--8--8--8--8--7--7--7--7--|
A|-8--8--8--8--8--7--7--7--7--|
D|-8--8--8--8--8--7--7--7--7--|

Chorus (I'm going to just type the chord changes to save space instead of writing out 
same chord a ton of times)
e|------------------------------|------------------------------------|
B|-10------8------11------------|------13------11------10------------|
G|-9-------7------10------------|------12------10------9-------------|
D|-7-------5------8-------------|------10------8-------7-------------|
A|-7-------5------8-------------|------10------8-------7-------------|
D|-7-------5------8-------------|x2----10------8-------7-------------|x2

Part B
e|---------------------------------------------------------------------|
B|---------------------------------------------------------------------|
G|---------------------------------------------------------------------|
D|---------------------------------------------------------------------|
A|---------------------------------------------------------------------|
D|-10-7-0---11-8-0---10-7-0---11-8-0-10-7-0---11-8-0---10-7-0---11-8-0-|

e|---------------------------------------------------------------------------|
B|---------------------------------------------------------------------------|
G|---------------------------------------------------------------------------|
D|------------------------------------------------------------0--0-0-0-0-0-0-|
A|------------------------------------------------------------0--0-0-0-0-0-0-|
D|-10-7-0-11-8-0---10-7-0---11-8-0---10-7-0---11-8-0---10-7-0-0--0-0-0-0-0-0-|x2

Breakdown
e|--------------------------------------------------------------------------|
B|--------------------------------------------------------------------------|
G|--------------------------------------------------------------------------|
D|--------------------------------------------------------------------------|
A|--------------------------------------------------------------------------|
D|-0-0-0--0-0-0--0-0-0--0-0-0-0-0--0-0-0--0-0-0--0-0-0--0-0-0--0-0-0--0-0-0-|

e|-----------------------------------------------------------------|
B|-----------------------------------------------------------------|
G|-----------------------------------------------------------------|
D|-----------------------------------------------------------------|
A|-----------------------------------------------------------------|
D|-0-0-0--0-0-0--0-0-0--0-0-0--0--0-0-0-0-0-0--0-0-0--0-0-0--0-0-0-|

e|----------------------------------------------------------------|
B|----------------------------------------------------------------|
G|----------------------------------------------------------------|
D|----------------------------------------------------------------|
A|----------------------------------------------------------------|
D|-0-0-0-0-0--0-0-0--0-0-0--0-0-0--0-0-0-0-0--0-0-0--0-0-0--0-0-0-|

e|------------------------------|
B|------------------------------|
G|------------------------------|
D|------------------------------|
A|------------------------------|
D|-0-0-0--0-0-0--0--0-0-0-0-0-0-|

Part C (play the top line and then ending 1, then the top line again but finish with
2)
e|-------------------------------------------------------------------------------------|
B|-------------------------------------------------------------------------------------|
G|-------------------------------------------------------------------------------------|
D|-------------------------------------------------------------------------------------|
A|-------------------------------------------------------------------------------------|
D|-10-7-0---10-7-0---11-8-0-10-7-0---10-7-0---10-7-0-10-8-0---11-8-0---11-8-0---10-7-0-|

e|----------------|-------------------------------------|
B|----ending-1----|-11-11-11-11-11-10-10-10-10----------|
G|----------------|-10-10-10-10-10-9--9--9--9--ending-2-|
D|-0--0-0-0-0-0-0-|-8--8--8--8--8--7--7--7--7-----------|
A|-0--0-0-0-0-0-0-|-8--8--8--8--8--7--7--7--7-----------|
D|-0--0-0-0-0-0-0-|-8--8--8--8--8--7--7--7--7-----------|

Play the chorus

Outro
e|------------------------------------------------------------------------|
B|------------------------------------------------------------------------|
G|------------------------------------------------------------------------|
D|-8-7---7-10-7-------8-7-8-7---7-10-7-------8-7-8-7---7-10-7-------7-8-7-|
A|-----9--------9-6-9---------9--------9-6-9---------9--------9-6-9-------|
D|------------------------------------------------------------------------|

e|------------------------------------------------------|
B|------------------------------------------------------|
G|------------------------------------------------------|
D|------------------------------------------------------|
A|------------------------------------------------------|
D|-0--0-0-0--0-0-0-0-0--0-0-0-0-0-0--0-0-0--0-0-0-0-0-0-|


************************************

| /   slide up
| \   slide down
| h   hammer-on
| p   pull-off
| ~   vibrato
| +   harmonic
| x   Mute note
| b   Bend
| pb  Pre-bend
| br  Bend release
| pbr Pre-bend release
| brb Bend release bend

************************************





Comments


Popular Oh Sleeper tabs & chords
World Without A Sun 2 Bass Tabs
Endseekers Intro Tabs
In The Wake Of Pigs Tabs
Reveries Of Flight Tabs
Vices Like Vipers 3 Tabs
Vices Like Vipers 5 Tabs
We Are The Archers 3 Tabs
We Are The Archurs Intro Tabs
Means To Believe Ukulele
Reveries Of Flight Ukulele


Song lyrics



↑ Back to top | Tablatures and chords are parodies/interpretations of the original songs. You may use it for private study, scholarship, research or language learning purposes only
© 2014 AZChords.com Contact us | Privacy policy | DMCA | Add/correct tabs | Request tabs | Top 50 tabs