>
 >
We Are The Archers

We Are The Archers Guitar Tabs

Oh Sleeper - We Are The Archers chords, tabs, tablatures, lyrics

Guitar lessons | Add/correct | Request | Top 50 tabs Artists:  A B C D E F G H I J K L M N O P Q R S T U V W X Y Z 0-9

We Are The Archers Guitar Tabs – Oh Sleeper

CD, Sheet music, Poster

Do you like We Are The Archers? Share with your friends now
TabsTabs v2Tabs v3
Oh, Sleeper
Drop C

couldnt find a good tab for this
people are stupid

on the octave chord the lead guitar plays a natural harmonic on the top 3 strings
d:--------------------------------|
a:---------15-15---------15-15-15-|
f:---------18-18---------x--x--x--|
c:--8--------------------12-12-12-|
g:--12----------------------------|
c:0----0-0-------1-0-1-2----------|

d:------------------------------------------------------|
a:----------------15-15-15---------------------15-15-15-|
f:----------------x--x--x----------------------x--x--x--|
c:----------------12-12-12---------------------12-12-12-|
g:0-1-x-0-1-x-0-1---------------------------------------|
c:0-1-x-0-1-x-0-1----------0-1-x-1-2-x-2-3-2-3----------|

d:------------------------------------------|
a:------------------------------------------|
f:------------------------------------------|
c:12-----12-----1212-----12----12----121212-|
g:8------8------8-8------8-----8-----8-8-8--|
c:---x-x----x-x------x-x---x-x---x-x--------|

d:-------------------|
a:----------15-15-15-|
f:----------x--x--x--|
c:----------12-12-12-|
g:0-1---1-2----------|
c:0-1-x-1-2----------|

d:-------------------------------------------------------------------------|
a:-------------------------------------------------------------------------|
f:-------------------------------------------------------------------------|
c:--12--121212--1212-------------------------------------------------------|
g:--8---8-8-8---8-8---------------[-----1]---------------------------------|
c:0---0-------0-----{x-0-x-0-x-0}-[1-0-1]ring out when playing note on 2nd-|


same thing but move the chord up to the 3rd and fourth strings
d:-------------------------------|
a:-------------------------------|
f:--12--121212--1212-------------|
c:--8---8-8-8---8-8--------------|
g:---------------------0---------|
c:0---0-------0--------0---------|let ring

play intro again
then

d:---------------------------------------------------------------------------------|
a:----------------------------------------------11-13-15---------------------------|
f:---------------------------------------------------------------------------------|
c:5-3-5-7-8~---7-5-7-10-12~---10-8-10-12-14-15-----------17~--12h13p12-------15-14-|
g:---------------------------------------------------------------------15-13-------|
c:---------------------------------------------------------------------------------|

this is kinda hard to hear

d:---------------------------|
a:--------10hold-------------|
f:7-10-9---------------------|
c:0-0--0-----------0h2-3/5---|
g:0-0--0-----8-7~------------|
c:0-0--0---------------------|

then the lead does this

d:---------------------------------------------------------------------------|
a:---------------------------------------------------------------------------|
f:------------------9h10--12/14~------------------------14-15----15-15-15-14-|
c:------------10h12-------------10h12-10h12-10h12-10h12----x--------------x--|
g:------10h12----------------------------------------------12-------------12-|
c:12h14--------------------------repeat--------------------------------------|

while the rhythm does this

d:-------------------------------------|
a:-------------------------------------|
f:-------------------------------------|
c:----------------0-----0--------------|
g:0 let ring----------------0----------|
c:0------------/3---3-1---1-0~---------|repeat

figure out the rhythm and palm mutes on your own
d:------------------------------------------------------------------|
a:----------11--11-11--11-11-11--11----------8---8--8---8--8--8--8--|
f:----------14--14-14--14-14-14--14----------12--12-12--12-12-12-12-|
c:------------------------------------------------------------------|
g:---0--------------------------------------------------------------|
c:8-3hold--0---0----0-0----0---0-------then 0---0----0-0----0---0---|

solo

d:17-------------------------------------------------------------------------|
a:---15----15-------------------------------------------------------------15-|
d:------14----14-------------------------------------------------------14----|
c:---------------15----15-13----13----13----------8----8----8----10-12-------|
g:------------------17-------17----17----17-15-17---12---12---12-------------|
c:---------------------------------------------------------------------------|

d:13-17p13----------17------------------------------------------------------|
a:---------15----------15----15---------------------------------------------|
f:------------12/14-------14----14------------------------------------------|
c:---------------------------------15----15-13----13----13----------8----8--|
g:------------------------------------17-------17----17----17-15-17---12----|
c:--------------------------------------------------------------------------|

d:--------------------13-17p13----------|
a:-----------------15----------15-------|
f:--------------14----------------12/14-|
c:---8----10-12-------------------------|
g:12---12-------------------------------|
c:--------------------------------------|

rhythm just plays open  listen for the timing





Comments


Popular Oh Sleeper tabs & chords
World Without A Sun Bass Tabs
Heavy Hands Chords
Means To Believe 1 Tabs
Reveries Of Flight 1 Tabs
Son Of The Morning Tabs
The Finisher 1 Tabs
The Siren's Song Tabs
Vices Like Vipers 2 Tabs
We Are The Archers 3 Tabs
We Are The Archurs Intro Tabs


Song lyrics



↑ Back to top | Tablatures and chords are parodies/interpretations of the original songs. You may use it for private study, scholarship, research or language learning purposes only
© 2014 AZChords.com Contact us | Privacy policy | DMCA | Add/correct tabs | Request tabs | Top 50 tabs