» » »

Oh Sleeper, Vices Like Vipers Tabs (ver.3)

Artists:  A B C D E F G H I J K L M N O P Q R S T U V W X Y Z # 

Vices Like Vipers Tabs (ver.3)

Oh Sleeper Tabs
 Rating:
4/5 (4 votes)
Vices Like Vipers lessons Tabs too difficult? Try these video lessons and learn fast
1
                Hey guys this is my first tab so here it goes.

D---------------------------------|
A---------------------------------|
F----7-------3-------3-------3----|  x3
C-0-0-0-0-0-0-0-0-0-0-0-0-0-0-0-0-|
G--0---0---0---0---0---0---0---0--|
C---------------------------------|

D---------------------------------|
A-----------------5---------------|
F----7-------3--------------------|
C-0-0-0-0-0-0-0-0-3---------------|
G--0---0---0---0------------------|
C---------------------------------|

Guitar 1
D----------------|
A----------------|
F--------10------|   x2
C-0--------(x24)-|
G-0-(x8)-8-------|
C-0--------------|

Guitar 2
D-----------------------|
A-----------------------|
F-0------8------7-------|    x4
C-0-(x8)-8-(x8)-8-(x16)-|
G-0------8------7-------|

Guitar 1
D-------5-10p5----------------4-9p4----------|
A------6------6--------------5-----5---------|
F-----7--------7------------6-------6--------|
C----7----------7----------6---------6-------|
G-5h8------------8-(x2)-4h7-----------7-(x2)-|
C--------------------------------------------|

Guitar 1
D------------17-22p17-------------------------16-21p16---------|
A----------18--------18---------------------17--------17-------|
F--------19------------19-----------------18------------18-----|
C------19----------------19-------------18----------------18---|
G-17h20--------------------20-(x2)-16h19--------------------19-|
C--------------------------------------------------------------|

Guitar 1(last one)
D------------16-17p16-----------|
A----------17--------17---------|
F--------18------------18----19-|
C------18----------------19-----|
G-16h19--------------------17---|
C-------------------------------|

Verse
D-------------------------------------------------------|
A-----------6-6--------------------10-10-10-10-10-10----|
F-----------9-9-----------------------------------------|
C-0-3s7s3p0---------------------7p0-8--8--8--8--8--8----|
G-------------------5-0h3h5s8---------------------------|
C--0-------0---0-2-3---------3p0---0----------------0-0-|
   .       .                       .                . .
D--------------------------------------------------------|
A-----------6-6------------------------------------------|
F-----------9-9------------------------------------------|
C-0-3s7s3p0---------------------7p0----------------------|
G-------------------5-0h3h5s8-------12-12-12-12-12-12-12-|
C--0-------0---0-2-3---------3p0---0-8--8--8--8--8--8--8-|
   .       .                       .
D-------------------------------------------------------|
A-----------6-6--------------------10-10-10-10-10-10----|
F-----------9-9-----------------------------------------|
C-0-3s7s3p0---------------------7p0-8--8--8--8--8--8----|
G-------------------5-0h3h5s8---------------------------|
C--0-------0---0-2-3---------3p0---0----------------0-0-|
   .       .                       .                . .
D-----------------------------------------------------------------------|
A-----------6-6---------------------------------------------------------|
F-----------9-9---------------------------------------------------------|
C-0-3s7s3p0---------------------7p0-------------------------------------|
G-------------------5-0h3h5s8-------12-12-12-12-12-12-12-10-10-10-10-10-|
C--0-------0---0-2-3---------3p0---0-8--8--8--8--8--8--8--7--7--7--7--7-|
   .       .                       .
Chorus
D---------------------------------------------------------------|
A---------------------------------------------------------------|
F---------------------------------------------------------------|    x4
C---------------------------------------------------------------|
G------5-5-5-----------3-3-------12-12-12---------12-12-12------|
C-0-0-0-----3-3-3-5-5-5---5-5-8-8--------8-8-8-8-8--------8-8-8-|

Last Part
D-------------------------------|
A-------------------------------|
F-------------------------------|
C-------------------------------|
G----10-10-10---------8-8---7-7-|
C-7-7--------7-7-7-5-5---3-3----|

Guitar 2
D----------------------------------------|
A----------------------------------------|
F----------------------------------------|
C-0-0-----00000000-0-----0------33333333-|    x4
G-0-0-----00000000-0-----0------33333333-|
C-0-0-----00000000-0-----0------33333333-|
          ........              ........

Guitar 1
D--------------------|
A--------------------|
F--------------------|
C--------------------|
G-8--7-12-10-------5-|
C--5--3--8--7-3h5s8--|

Last one
D--------------------|
A--------------------|
F--------------------|
C--------------------|
G-8--7-12-10-------5-|
C--5--3--8--7-0h2s3--|

Verse

I'll do the rest later...
            
Submit corrections

comments powered by Disqus
↑ Back to top | Oh Sleeper Tabs for Vices Like Vipers. Lyrics for acoustic guitar and electric guitar. 1 Tablatures and chords are parodies/interpretations of the original songs. You may use it for private study, scholarship, research or language learning purposes only