>
 >
The Siren's Song

The Siren's Song Guitar Tabs

Oh Sleeper - The Siren's Song chords, tabs, tablatures, lyrics

Guitar lessons | Add/correct | Request | Top 50 tabs Artists:  A B C D E F G H I J K L M N O P Q R S T U V W X Y Z 0-9

The Siren's Song Guitar Tabs – Oh Sleeper

CD, Sheet music, Poster

Do you like The Siren's Song? Share with your friends now
Tabs
                             The Siren’s Song – Oh, Sleeper



Tuning: Drop C (CGCFAD)

Notice the time above each section, it corresponds to the song so you should be able to 
sounds odd, it’s probably your friggin ears :)


Intro (let ring)
D|--6-----6-----6-----6--------|
A|--3-----3-----4-----4-----*--|
F|--3-----3-----3-----3--------|repeat 1X
C|--5-----5-----5-----5-----*--|
G|-----------------------------|
C|-----------------------------|

  :20            :22 (Verse) repeat 3x
D|--------------|-6------------------------6------------------------------|
A|--------------|-10-----------------------10-----------4-----4-----------|
F|--3-----------|------------------------------------------------------*--|
C|--------------|--------7-----0------------------7---------3---3\--------|
G|------5-------|-----------------------------------------3------------*--|
C|----5-----3\--|----7\5---3/5---1—-1-1-1/----7\5---3/5-------------------|
                                    x x x
  :45
D|----------------------------------------------------|
A|----------------------------------------------------|
F|--8--8--------------8--8-8-----------------------*--|
C|--5--5--------------5--5-5--------------------------| repeat 3X
G|--6--6--0-0-0--0-0--6--6-6--0-0-0--0--0-0-0-0----*--|
C|--5--5--0-0-0--0-0--5--5-5--0-0-0--0--0-0-0-0-------|
          x x x  x x          x x x  x  x x x x

  :56  Guitar 1
D|-----------------------------------------|
A|-----------------------------------------|
F|-----------------------------------------|
C|-----------------------------------------|
G|--3--3—---3--3-3----3--3----3--3-3-------|
C|-----------------------------------------|
 |
 |     Guitar 2
D|--------3-5---6-5---------3-5---6-5-6-5--|
A|----3/4-----4---------3/4-----4----------|
F|--5-----------------5--------------------|
C|-----------------------------------------|
G|-----------------------------------------|
C|-----------------------------------------|

     Guitar 1
D --------------------------------------------|
A --------------------------------------------|
F --------------------------------------------|
C --------------------------------------------|
G --5--5----5--5-5--------5----5----5--5-5----|
C --5--5----5--5-5--------5----5----5--5-5----| repeat 1X
 |                                            |
 |   Guitar 2                                 |
D --------------------------------------------|
A --------------------------------------------|
F ------- 5-----5-7-8-7---------5-----5-7-87--|
C --5-7h8---8-7-----------5-7h8---8-7---------|
G --------------------------------------------|
C --------------------------------------------|


  1:14 Guitar 1
D|------------------------------|
A|------------------------------|
F|------------------------------|
C|------------------------------|
G|--1-----------3------------5--|
C|--1-----------3------------5--|
 |                              |
 |     Guitar 2                 |
D|--11-10-------18-17-----------|
A|--------10----------16--------|
F|------------------------------|
C|------------------------------|
G|------------------------------|
C|------------------------------|

  1:19 (Chorus)
D|---------------------------------------------------------------------------|
A|--8--8--------8--8--------8--8--------8-8-8--------8--8-------8-8-8--------|
F|---------------------------------------------------------------------------|
C|---------------------------------------------------------------------------|
G|-------5--5-5------5--5-5------5--5-5-------5--1-1------1--1-1------1--1-1-|
C|-------5--5-5------5--5-5------5--5-5-------5--1-1------1--1-1------1--1-1-|

D ----------------------------------|
A --8-8-8--------8-8-8--------------|
F -------------------------------*--| repeat 1X
C ----------------------------------|
G --------1--1-1--------1--5-5---*--|
C --------1--1-1--------1--5-5------|

  1:39 (last time of Chorus)
D|---------------------------------------------|
A|---------------------------------------------|
F|---------------------------------------------|
C|---------------------------------------------|
G|--1---0—-------------------------------------|
C|--1---0--------------------------------------|
 |      
  1:59
D|-------------------------------------------------------------------|
A|-------------------------------------------------------------------|
F|--5-5-5b---5--5-5b---5-5-5-5-5b=r=b=r---5--5-5b---5-5-5-5-5b=r=b=r-|
C|-------------------------------------------------------------------|
G|--3-3-3----3--3-3----3-3-3-3-3----------3--3-3----3-3-3-3-3--------|
C|-------------------------------------------------------------------|

D -----------------------------------|
A -----------------------------------|
F --5--5-5b---5-5-5-5-5b---5--5-5b---|
C -----------------------------------|
G --3--3-3----3-3-3-3-3----3--3-3----|
C -----------------------------------|

  2:10  Guitar 1
D|-------------------------------------------------------------|
A|-------------------------------------------------------------|
F|-------------------------------------------------------------|
C|-------------------------------------------------------------|
G|--5-------5---5-5------5-------5--5-5------------------------|
C|--5-------5---5-5------5-------5--5-5------------------------|
 |
 |      Guitar 2
D|-------------------------------------------------------------|
A|-------------------------------------------------------------|
F|--------5-----5-7-8-7--------5-----5-7-8-7-------------------|
C|--5-7h8---8-7----------5-7h8---8-7---------------------------|
G|-------------------------------------------------------------|
C|-------------------------------------------------------------|

  2:16  Guitar 1
D -------------------------------------------------------------|
A -------------------------------------------------------------|
F --5-------5---5-5-----5-------5---5-5------------------------|
C --5-------5---5-5-----5-------5---5-5------------------------|
G --3-------3---3-3-----3-------3---3-3--------1---0-0-0--0-0--|
C ---------------------------------------------1---0-0-0--0-0--|
 |                                                             |
 |      Guitar 2                                               |
D --------3-5---6-5-----------3-5---6-5-6-5--------------------|
A ----3/4-----4-----------3/4-----4----------------------------|
F --5-------------------5--------------------------------------|
C -------------------------------------------------------------|
G ---------------------------------------------1---0-0-0--0-0--|
C ---------------------------------------------1---0-0-0--0-0--|

  2:28
D|-------------------------------------------------|
A|-------------------------------------------------|
F|--7--7--------------7---7--7---------------------|
C|-------------------------------------------------| repeat 2X
G|--5--5--0-0-0--0-0--5---5--5--0-0-0--0--0-0-0-0--|
C|--------0-0-0--0-0------------0-0-0--0--0-0-0-0--|


D|---------------------------------------------------------|
A|---------------------------------------------------------|
F|--7--7--------------7---7--7--7--7--7--7--7--7-----------|
C|---------------------------------------------------------|
G|--5--5--0-0-0--0-0--5---5--5--5--5--5--5--5--5--0--------|
C|--------0-0-0--0-0------------------------------0--------|
                                                  
  2:40
D|----------------------------------------------------------------------|
A|----------------------------------------------------------------------|
F|----------------------------------------------------------------------|
C|--------------8-------------8-------------------------8-------------8-|
G|--10-10-10-10---10-10-10-10---10-10-10-10-10-10-10-10---10-10-10-10---|
C|----------------------------------------------------------------------|

D ----------------------------------------------------------------------|
A ----------------------------------------------------------------------|
F ----------------------------------------------------------------------|
C ----------------------7---------7-----------------7---------7---------|
G --10-10-10-10-8-8-8-8---8-8-8-8---8-8-8-8-8-8-8-8---8-8-8-8---8-8-8-8-|
C ----------------------------------------------------------------------|

D --------------------------------------------------------------------|
A --------------------------------------------------------------------|
F --------------------------------------------------------------------|
C ----------7---------7-----------------7---------7-----------------7-|
G --6-6-6-6---6-6-6-6---6-6-6-6-6-6-6-6---6-6-6-6---6-6-6-6-5-5-5-5---|
C --------------------------------------------------------------------|

D -------------------------------------------------|
A -------------------------------------------------|
F -------------------------------------------------|
C ----------7-----------------7---------7----------| repeat 2X
G --5-5-5-5---5-5-5-5-5-5-5-5---5-5-5-5---5-5-5-5--|
C -------------------------------------------------|

  3:20
D|----------------------------------------------------------|
A|----------------------------------------------------------|
F|----------------------------------------------------------|
C|------0------------------0-----------------0--------------| repeat 1X
G|----5---5------5-------5---5------5------5---5------5-----|
C|--5-------5--5-------3-------3--3------1-------1--1----0--|
    
 |                                                              |
 |   Guitar 2                                                   |
D --------------------------------------------------------------|
A –11t------13t---15t---18t---------11t------13t---15t---18t----|
F --------------------------------------------------------------|
C --------------------------------------------------------------|
G --------------------------------------------------------------|
C --------------------------------------------------------------|

| /  slide up
| \  slide down
| h  hammer-on
| p  pull-off
| b  bend up
| r  release down
| t  trill pick (pick notes very fast)
| ~  vibrato
| +  harmonic
| x  Mute note
===============================================================================





Comments


Popular Oh Sleeper tabs & chords
Reveries Of Flight Bass Tabs
World Without A Sun Bass Tabs
Reveries Of Flight Chords
Commissioned By Kings Tabs
I Will Welcome The Reaping Tabs
The Finisher 3 Tabs
The Marriage Of Steel And Skin Tabs
Vices Like Vipers 5 Tabs
We Are The Archers 3 Tabs
We Are The Archurs Intro Tabs


Song lyrics



↑ Back to top | Tablatures and chords are parodies/interpretations of the original songs. You may use it for private study, scholarship, research or language learning purposes only
© 2014 AZChords.com Contact us | Privacy policy | DMCA | Add/correct tabs | Request tabs | Top 50 tabs