>
 >
The Marriage Of Steel And Skin

The Marriage Of Steel And Skin Guitar Tabs

Oh Sleeper - The Marriage Of Steel And Skin chords, tabs, tablatures, lyrics

Guitar lessons | Add/correct | Request | Top 50 tabs Artists:  A B C D E F G H I J K L M N O P Q R S T U V W X Y Z 0-9

The Marriage Of Steel And Skin Guitar Tabs – Oh Sleeper

CD, Sheet music, Poster

Do you like The Marriage Of Steel And Skin? Share with your friends now
Tabs
#------------------------------------------------------------------------------##

                         THE MARRIAGE OF STEEL AND SKIN
                           As recorded by Oh, Sleeper
                     (From the 2011 Album CHILDREN OF FIRE)

Words by Micah Kinard

Music by Oh, Sleeper

Gtr I (C G C F A D) - 'Shane'
Gtr II (C G C F A D) - 'James'

   Intro
    Q=125
   4/4
    Gtr I
     T  T  T  T  T     T  T  T  T  T  T  T  T
     S  S  S  S  S E.  S  S  S  S  S  S  S  S
||--------------------------------------------|
||o-15----16----15----15----16----15----16----|
||--------------------------------------------|
||-----12----13----------12----13----12----13-|
||o-------------------------------------------|
||-----------------0--------------------------|
|
|   Gtr II
|    S  S  S  S  S E.  S  S  S  S  S  S  S  S
||--------------------------------------------|
||o--4--4--4--4--4-----4--4--4--4--4--4--4--4-|
||---7--7--7--7--7-----7--7--7--7--7--7--7--7-|
||--------------------------------------------|
||o-------------------------------------------|
||-----------------0--------------------------|


   T     T  T  T  T  T     T  T  T  T    T      T  T    T  T  T  T
   S E.  S  S  S  S  S E.  S  S  S  S    S  S   S  S S  S  S  S  S E. S E.
|-------------------------------------|-18-11p------------------------------|
|-15----15----16----15----15----16----|--------15---------16----15----------|
|-------------------------------------|-----------17-0-13-------------------|
|----------12----13----------12----13-|----------------------13-------------|
|-------------------------------------|-------------------------------------|
|----0-----------------0--------------|----------------------------0--0-1---|
|
|  S E.  S  S  S  S  S E.  S  S  S  S    S  S   S  S S  S  S  S  S E. S E.
|-------------------------------------|-------------------------------------|
|--4-----4--4--4--4--4-----4--4--4--4-|-------------------------------------|
|--7-----7--7--7--7--7-----7--7--7--7-|-------------------------------------|
|-------------------------------------|-------------------------------------|
|-------------------------------------|-------------------------------------|
|----0-----------------0--------------|--0--0---0--0-0--0--0--0--0-0--0-1---|


   T  T  T  T  T  T   T  T  T  T  T  T  T  T
   S  S  S  S  S  E.  S  S  S  S  S  S  S  S
|--------------------------------------------|
|-16----17----16-----16----17----16----17----|
|--------------------------------------------|
|----13----14-----------13----14----13----14-|
|--------------------------------------------|
|----------------13--------------------------|
|
|  S  S  S  S  S  E.  S  S  S  S  S  S  S  S
|--------------------------------------------|
|--5--5--5--5--5------5--5--5--5--5--5--5--5-|
|--8--8--8--8--8------8--8--8--8--8--8--8--8-|
|--------------------------------------------|
|--------------------------------------------|
|-----------------1--------------------------|


                                         1.
   T  T   T  T  T  T  T  T   T  T  T  T    T      T  T    T  T  T  T
   S  E.  S  S  S  S  S  E.  S  S  S  S    S  S   S  S S  S  S  S  S E. S E.
|---------------------------------------|-18-11p------------------------------||
|-16-----16----17----16-----16----17----|--------15---------16----15---------o||
|---------------------------------------|-----------17-0-13-------------------||
|-----------13----14-----------13----14-|----------------------13-------------||
|---------------------------------------|------------------------------------o||
|----13-----------------13--------------|----------------------------0--0-1---||
|
|  S  E.  S  S  S  S  S  E.  S  S  S  S    S  S   S  S S  S  S  S  S E. S E.
|---------------------------------------|-------------------------------------||
|--5------5--5--5--5--5------5--5--5--5-|------------------------------------o||
|--8------8--8--8--8--8------8--8--8--8-|-------------------------------------||
|---------------------------------------|-------------------------------------||
|---------------------------------------|------------------------------------o||
|-----1------------------1--------------|--1--1---1--1-1--1--1--1--1-0--0-1---||


  2.
   T      T  T    T  T  T
   S  S   S  S S  S  S  S  S  S   S  S S  S  S  S
|-18-11p------------------17-10-------------21----|
|--------15---------16-----------14---------------|
|-----------17-0-13-----------------16-0-12----19-|
|----------------------13-------------------------|
|-------------------------------------------------|
|-------------------------------------------------|
|
|                          T      T  T    T  T  T
|  H                       S  S   S  S S  S  S  S
|-------------------------18-11p------------22----|
|--------------------------------15---------------|
|-----------------------------------17-0-13----20-|
|-------------------------------------------------|
|-------------------------------------------------|
|-------------------------------------------------|


   Verse
    S  S  S  S  S e S S  S  S  S S  S  S  S
||------------------------------------------|
||o-----------------------------------------|
||------------------------------------------|
||-------13----12----------13---------13----|
||o-----------------------------------------|
||--0-12----13----0---0-12----13-0-12----13-|


   S e S S  S  S  S  S e S S  S S  S
|------------------------------------|
|------------------------------------|
|------------------------------------|
|-12----------13----12-----0-15------|
|------------------------------------|
|----0---0-12----13----0--------0-10-|


  S  S  S  S  S e S S  S  S  S S  S  S  S
|-----------------------------------------|
|-----------------------------------------|
|-----------------------------------------|
|------15----14----------15---------15----|
|-----------------------------------------|
|-0-14----15----0---0-14----15-0-14----15-|


   S e S S  S  S  S  S e S S  S S  S
|--------------------------------------||
|-------------------------------------o||
|--------------------------------------||
|-14----------15----14-----0-15--------||
|-------------------------------------o||
|----0---0-14----15----0--------0-10---||


 3/4
  S  S S S S  S S S S S S S
|---------------------------|
|---------------------------|
|---------------------------|
|-0-13-----0-10-----0-8-----|
|---------------------------|
|------0-8------0-7-----0-3-|


 Chorus
 4/4
   S  S  S  S  S  S  S  S  S  S  S  S  S  S  S  S
|-------------------------------------------------|
|-------------------------------------------------|
|-10-10-10-10-10-10-10-10-10-10-10-10-10-10-10-10-|
|--x--x--x--x--x--x--x--x--x--x--x--x--x--x--x--x-|
|--8--8--8--8--8--8--8--8--8--8--8--8--8--8--8--8-|
|-------------------------------------------------|
|
|  Q           Q           Q           Q
|-------------------------------------------------|
|-------------------------------------------------|
|-------------------------------------------------|
|--0-----------0-----------0-----------0----------|
|--0-----------0-----------0-----------0----------|
|--0-----------0-----------0-----------0----------|


   S  S  S  S  S  S  S  S  S  S  S  S  S  S  S  S
|-------------------------------------------------|
|-------------------------------------------------|
|-10-10-10-10-10-10-10-10-10-10-10-10-10-10-10-10-|
|--x--x--x--x--x--x--x--x--x--x--x--x--x--x--x--x-|
|--8--8--8--8--8--8--8--8--8--8--8--8--8--8--8--8-|
|-------------------------------------------------|
|
|  Q           Q           Q           Q
|-------------------------------------------------|
|-------------------------------------------------|
|-------------------------------------------------|
|--0-----------0-----------0-----------0----------|
|--0-----------0-----------0-----------0----------|
|--0-----------0-----------0-----------0----------|


   S  S  S  S  S  S  S  S  S  S  S  S  S  S  S  S
|-------------------------------------------------|
|-------------------------------------------------|
|-15-15-15-15-15-15-15-15-15-15-15-15-15-15-15-15-|
|--x--x--x--x--x--x--x--x--x--x--x--x--x--x--x--x-|
|-13-13-13-13-13-13-13-13-13-13-13-13-13-13-13-13-|
|-------------------------------------------------|
|
|  Q           Q           Q           Q
|-------------------------------------------------|
|-------------------------------------------------|
|-------------------------------------------------|
|--8-----------8-----------8-----------8----------|
|--5-----------5-----------5-----------5----------|
|--5-----------5-----------5-----------5----------|


   S  S  S  S  S  S  S  S  S  S  S  S  S  S  S  S
|--------------------------------------------------|
|--------------------------------------------------|
|-15-15-15-15-15-15-15-15-15-15-15-15-15-15-15-15--|
|--x--x--x--x--x--x--x--x--x--x--x--x--x--x--x--x--|
|-13-13-13-13-13-13-13-13-13-13-13-13-13-13-13-13--|
|--------------------------------------------------|
|
|  Q           Q           Q           Q
|--------------------------------------------------|
|--------------------------------------------------|
|--------------------------------------------------|
|--8-----------8-----------8-----------8-----------|
|--5-----------5-----------5-----------5-----------|
|--5-----------5-----------5-----------5-----------|


   S  S  S  S  S  S  S  S  S  S  S  S  S  S  S  S
|-------------------------------------------------|
|-------------------------------------------------|
|-19-19-19-19-19-19-19-19-19-19-19-19-19-19-19-19-|
|--x--x--x--x--x--x--x--x--x--x--x--x--x--x--x--x-|
|-17-17-17-17-17-17-17-17-17-17-17-17-17-17-17-17-|
|-------------------------------------------------|
|
|  Q           Q           Q           Q
|-------------------------------------------------|
|-------------------------------------------------|
|-------------------------------------------------|
|-12----------12----------12----------12----------|
|--8-----------8-----------8-----------8----------|
|--8-----------8-----------8-----------8----------|


   S  S  S  S  S  S  S  S  S  S  S  S  S  S  S  S
|--------------------------------------------------|
|--------------------------------------------------|
|-19-19-19-19-19-19-19-19-19-19-19-19-19-19-19-19--|
|--x--x--x--x--x--x--x--x--x--x--x--x--x--x--x--x--|
|-17-17-17-17-17-17-17-17-17-17-17-17-17-17-17-17--|
|--------------------------------------------------|
|
|  Q           Q           Q           Q
|--------------------------------------------------|
|--------------------------------------------------|
|--------------------------------------------------|
|-12----------12----------12----------12-----------|
|--8-----------8-----------8-----------8-----------|
|--8-----------8-----------8-----------8-----------|


   S  S  S  S  S  S  S  S  S  S  S  S  S  S  S  S
|-------------------------------------------------|
|-------------------------------------------------|
|-15-15-15-15-15-15-15-15-15-15-15-15-15-15-15-15-|
|--x--x--x--x--x--x--x--x--x--x--x--x--x--x--x--x-|
|-13-13-13-13-13-13-13-13-13-13-13-13-13-13-13-13-|
|-------------------------------------------------|
|
|  Q           Q           Q           Q
|-------------------------------------------------|
|-------------------------------------------------|
|-------------------------------------------------|
|--8-----------8-----------8-----------8----------|
|--5-----------5-----------5-----------5----------|
|--5-----------5-----------5-----------5----------|


   S  S  S  S  S  S  S  S  S  S  S  S  S  S  S  S
|--------------------------------------------------|
|--------------------------------------------------|
|-18-18-18-18-18-18-18-18-18-18-18-18-18-18-18-18--|
|--x--x--x--x--x--x--x--x--x--x--x--x--x--x--x--x--|
|-16-16-16-16-16-16-16-16-16-16-16-16-16-16-16-16--|
|--------------------------------------------------|
|
|  Q           Q           Q           Q
|--------------------------------------------------|
|--------------------------------------------------|
|--------------------------------------------------|
|--7-----------7-----------7-----------7-----------|
|--x-----------x-----------x-----------x-----------|
|--7-----------7-----------7-----------7-----------|


 4/4
   S  S  S  S  S  S  S  S  S  S  S  S  S  S  S  S
|-------------------------------------------------|
|-------------------------------------------------|
|-10-10-10-10-10-10-10-10-10-10-10-10-10-10-10-10-|
|--x--x--x--x--x--x--x--x--x--x--x--x--x--x--x--x-|
|--8--8--8--8--8--8--8--8--8--8--8--8--8--8--8--8-|
|-------------------------------------------------|
|
|  Q           E     Q           E     Q
|-------------------------------------------------|
|-------------------------------------------------|
|-------------------------------------------------|
|--0-----------------0-----------------0----------|
|--0-----------------0-----------------0----------|
|--0-----------------0-----------------0----------|


   S  S  S  S  S  S  S  S  S  S  S  S  S  S  S  S
|-------------------------------------------------|
|-------------------------------------------------|
|-10-10-10-10-10-10-10-10-10-10-10-10-10-10-10-10-|
|--x--x--x--x--x--x--x--x--x--x--x--x--x--x--x--x-|
|--8--8--8--8--8--8--8--8--8--8--8--8--8--8--8--8-|
|-------------------------------------------------|
|
|  E     Q           E     Q           E     E
|-------------------------------------------------|
|-------------------------------------------------|
|-------------------------------------------------|
|--------0-----------------0-----------------0----|
|--------0-----------------0-----------------0----|
|--------0-----------------0-----------------0----|


   S   S  S  S  S  S  S  S  S  S  S  S  S  S  S  S
|--------------------------------------------------|
|--------------------------------------------------|
|-15--15-15-15-15-15-15-15-15-15-15-15-15-15-15-15-|
|--x---x--x--x--x--x--x--x--x--x--x--x--x--x--x--x-|
|-13--13-13-13-13-13-13-13-13-13-13-13-13-13-13-13-|
|--------------------------------------------------|
|
| +E      E     Q           E     Q           E
|--------------------------------------------------|
|--------------------------------------------------|
|--------------------------------------------------|
|-(0)-----------8-----------------8----------------|
|-(0)-----------5-----------------5----------------|
|-(0)-----------5-----------------5----------------|


   S  S  S  S  S  S  S  S  S  S  S  S  S  S  S  S
|--------------------------------------------------|
|--------------------------------------------------|
|-15-15-15-15-15-15-15-15-15-15-15-15-15-15-15-15--|
|--x--x--x--x--x--x--x--x--x--x--x--x--x--x--x--x--|
|-13-13-13-13-13-13-13-13-13-13-13-13-13-13-13-13--|
|--------------------------------------------------|
|
|  Q           E     Q           E     Q
|--------------------------------------------------|
|--------------------------------------------------|
|--------------------------------------------------|
|--8-----------------8-----------------8-----------|
|--5-----------------5-----------------5-----------|
|--5-----------------5-----------------5-----------|


   S  S  S  S  S  S  S  S  S  S  S  S  S  S  S  S
|-------------------------------------------------|
|-------------------------------------------------|
|-19-19-19-19-19-19-19-19-19-19-19-19-19-19-19-19-|
|--x--x--x--x--x--x--x--x--x--x--x--x--x--x--x--x-|
|-17-17-17-17-17-17-17-17-17-17-17-17-17-17-17-17-|
|-------------------------------------------------|
|
|  E     Q           E     Q           E     E
|-------------------------------------------------|
|-------------------------------------------------|
|-------------------------------------------------|
|-------12----------------12----------------12----|
|--------8-----------------8-----------------8----|
|--------8-----------------8-----------------8----|


    S   S  S  S  S  S  S  S  S  S  S  S  S  S  S  S
|----------------------------------------------------|
|----------------------------------------------------|
|--19--19-19-19-19-19-19-19-19-19-19-19-19-19-19-19--|
|---x---x--x--x--x--x--x--x--x--x--x--x--x--x--x--x--|
|--17--17-17-17-17-17-17-17-17-17-17-17-17-17-17-17--|
|----------------------------------------------------|
|
|  +E      E     Q           E     Q           E
|----------------------------------------------------|
|----------------------------------------------------|
|----------------------------------------------------|
|-(12)----------12----------------12-----------------|
|--(8)-----------8-----------------8-----------------|
|--(8)-----------8-----------------8-----------------|


   S  S  S  S  S  S  S  S  S  S  S  S  S  S  S  S
|-------------------------------------------------|
|-------------------------------------------------|
|-15-15-15-15-15-15-15-15-15-15-15-15-15-15-15-15-|
|--x--x--x--x--x--x--x--x--x--x--x--x--x--x--x--x-|
|-13-13-13-13-13-13-13-13-13-13-13-13-13-13-13-13-|
|-------------------------------------------------|
|
|  Q           E     Q           E     Q
|-------------------------------------------------|
|-------------------------------------------------|
|-------------------------------------------------|
|--8-----------------8-----------------8----------|
|--5-----------------5-----------------5----------|
|--5-----------------5-----------------5----------|


   S  S  S  S  S  S  S  S  S  S  S  S  S  S  S  S
|--------------------------------------------------|
|--------------------------------------------------|
|-18-18-18-18-18-18-18-18-18-18-18-18-18-18-18-18--|
|--x--x--x--x--x--x--x--x--x--x--x--x--x--x--x--x--|
|-16-16-16-16-16-16-16-16-16-16-16-16-16-16-16-16--|
|--------------------------------------------------|
|
|  E     Q           E     Q           S  S  S  S
|--------------------------------------------------|
|--------------------------------------------------|
|--------------------------------------------------|
|--------7-----------------7-----------7--7--7--7--|
|--------x-----------------x-----------x--x--x--x--|
|--------7-----------------7-----------7--7--7--7--|


   Verse
   4/4
     T  T  T  T  T     T  T  T  T  T  T  T  T
     S  S  S  S  S E.  S  S  S  S  S  S  S  S
||--------------------------------------------|
||o-15----16----15----15----16----15----16----|
||--------------------------------------------|
||-----12----13----------12----13----12----13-|
||o-------------------------------------------|
||-----------------0--------------------------|
|
|    S  S  S  S  S E.  S  S  S  S  S  S  S  S
||--------------------------------------------|
||o--4--4--4--4--4-----4--4--4--4--4--4--4--4-|
||---7--7--7--7--7-----7--7--7--7--7--7--7--7-|
||--------------------------------------------|
||o-------------------------------------------|
||-----------------0--------------------------|


   T     T  T  T  T  T     T  T  T  T    T      T  T    T  T  T  T
   S E.  S  S  S  S  S E.  S  S  S  S    S  S   S  S S  S  S  S  S E. S E.
|-------------------------------------|-18-11p------------------------------|
|-15----15----16----15----15----16----|--------15---------16----15----------|
|-------------------------------------|-----------17-0-13-------------------|
|----------12----13----------12----13-|----------------------13-------------|
|-------------------------------------|-------------------------------------|
|----0-----------------0--------------|----------------------------0--0-1---|
|
|  S E.  S  S  S  S  S E.  S  S  S  S    S  S   S  S S  S  S  S  S E. S E.
|-------------------------------------|-------------------------------------|
|--4-----4--4--4--4--4-----4--4--4--4-|-------------------------------------|
|--7-----7--7--7--7--7-----7--7--7--7-|-------------------------------------|
|-------------------------------------|-------------------------------------|
|-------------------------------------|-------------------------------------|
|----0-----------------0--------------|--0--0---0--0-0--0--0--0--0-0--0-1---|


   T  T  T  T  T  T   T  T  T  T  T  T  T  T
   S  S  S  S  S  E.  S  S  S  S  S  S  S  S
|--------------------------------------------|
|-16----17----16-----16----17----16----17----|
|--------------------------------------------|
|----13----14-----------13----14----13----14-|
|--------------------------------------------|
|----------------13--------------------------|
|
|  S  S  S  S  S  E.  S  S  S  S  S  S  S  S
|--------------------------------------------|
|--5--5--5--5--5------5--5--5--5--5--5--5--5-|
|--8--8--8--8--8------8--8--8--8--8--8--8--8-|
|--------------------------------------------|
|--------------------------------------------|
|-----------------1--------------------------|


                                         1.
   T  T   T  T  T  T  T  T   T  T  T  T    T      T  T    T  T  T  T
   S  E.  S  S  S  S  S  E.  S  S  S  S    S  S   S  S S  S  S  S  S E. S E.
|---------------------------------------|-18-11p------------------------------||
|-16-----16----17----16-----16----17----|--------15---------16----15---------o||
|---------------------------------------|-----------17-0-13-------------------||
|-----------13----14-----------13----14-|----------------------13-------------||
|---------------------------------------|------------------------------------o||
|----13-----------------13--------------|----------------------------0--0-1---||
|
|  S  E.  S  S  S  S  S  E.  S  S  S  S    S  S   S  S S  S  S  S  S E. S E.
|---------------------------------------|-------------------------------------||
|--5------5--5--5--5--5------5--5--5--5-|------------------------------------o||
|--8------8--8--8--8--8------8--8--8--8-|-------------------------------------||
|---------------------------------------|-------------------------------------||
|---------------------------------------|------------------------------------o||
|-----1------------------1--------------|--1--1---1--1-1--1--1--1--1-0--0-1---||


  2.
   T      T  T    T  T  T
   S  S   S  S S  S  S  S  S  S   S  S S  S  S  S
|-18-11p------------------17-10-------------21----|
|--------15---------16-----------14---------------|
|-----------17-0-13-----------------16-0-12----19-|
|----------------------13-------------------------|
|-------------------------------------------------|
|-------------------------------------------------|
|
|                          T      T  T    T  T  T
|  H                       S  S   S  S S  S  S  S
|-------------------------18-11p------------22----|
|--------------------------------15---------------|
|-----------------------------------17-0-13----20-|
|-------------------------------------------------|
|-------------------------------------------------|
|-------------------------------------------------|


   Breakdown
                 T                       T
    Q  S S S  S  S  S S S Q    S S S  S  S  S S S E E Q
||-------0h8h11-22-11p8p0----|---0h8h11-22-11p8p0--------|
||o--------------------------|---------------------------|
||---------------------------|---------------------------|
||--0---------------------0--|--------------------0---0--|
||o-0---------------------0--|--------------------0---0--|
||--0---------------------0--|--------------------0---0--|
|
|   Q  H                  Q    H                  E E Q
||---------------------------|---------------------------|
||o--------------------------|---------------------------|
||---------------------------|---------------------------|
||--0---------------------0--|--------------------0---0--|
||o-0---------------------0--|--------------------0---0--|
||--0---------------------0--|--------------------0---0--|


            T         T      T  T     T  T  T
  S S S  S  S  S S S  S  S   S  S S   S  S  S
|---0h8h11-22-11p8p0-18-11p-------------22-----||
|---------------------------15----------------o||
|------------------------------17-0p-13----20--||
|----------------------------------------------||
|---------------------------------------------o||
|----------------------------------------------||
|
|                     T      T  T     T  T  T
| H                   S  S   S  S S   S  S  S
|--------------------17-10p-------------21-----||
|---------------------------14----------------o||
|------------------------------16-0p-12----19--||
|----------------------------------------------||
|---------------------------------------------o||
|----------------------------------------------||


   3/4
     H.          H.          H.            H.
||--22--------|-22--------|-22----------|-22------||
||o-16--------|-16--------|-16----------|-16-----o||
||--19--------|-19--------|-19----------|-19------||
||---0--------|--0--------|--0----------|--0------||
||o-18--------|-18--------|-18----------|-18-----o||
||---0--------|--0--------|--0----------|--0------||
|
|    Q   H       Q   H       E  E Q  Q     H.
||------------|-----------|-------------|---------||
||o-----------|-----------|-------------|--------o||
||------------|-----------|-------------|---------||
||---0--------|--0--------|--0----0-----|---------||
||o--0--------|--0--------|--0----0-----|--------o||
||---0--------|--0--------|--0----0-----|---------||


 Interlude
 4/4
  Gtr II
  S S S S S S S S S S S S S S S S   S S S S S S S S S S S S S S S S
|---------------------------------|---------------------------------|
|---------------------------------|---------------------------------|
|---------------------------------|---------------------------------|
|-3-3-3-3-3-3-3-3-3-3-3-3-3-3-3-3-|-3-3-3-3-3-3-3-3-3-3-3-3-3-3-3-3-|
|-5-5-5-5-5-5-5-5-5-5-5-5-5-5-5-5-|-5-5-5-5-5-5-5-5-5-5-5-5-5-5-5-5-|
|---------------------------------|---------------------------------|


  S S S S S S S S S S S S S S S S   S S S S S S S S S S S S S S S S
|---------------------------------|----------------------------------|
|---------------------------------|----------------------------------|
|---------------------------------|----------------------------------|
|-8-8-8-8-8-8-8-8-8-8-8-8-8-8-8-8-|-8-8-8-8-8-8-8-8-8-8-8-8-8-8-8-8--|
|-5-5-5-5-5-5-5-5-5-5-5-5-5-5-5-5-|-5-5-5-5-5-5-5-5-5-5-5-5-5-5-5-5--|
|---------------------------------|----------------------------------|


   S  S  S  S  S  S  S  S  S  S  S  S  S  S  S  S
|-------------------------------------------------|
|-------------------------------------------------|
|-------------------------------------------------|
|-12-12-12-12-12-12-12-12-12-12-12-12-12-12-12-12-|
|--8--8--8--8--8--8--8--8--8--8--8--8--8--8--8--8-|
|-------------------------------------------------|


   S  S  S  S  S  S  S  S  S  S  S  S  S  S  S  S
|--------------------------------------------------|
|--------------------------------------------------|
|--------------------------------------------------|
|-12-12-12-12-12-12-12-12-12-12-12-12-12-12-12-12--|
|--8--8--8--8--8--8--8--8--8--8--8--8--8--8--8--8--|
|--------------------------------------------------|


  S S S S S S S S S S S S S S S S   S S S S S S S S S S S S S S S S
|---------------------------------|----------------------------------|
|---------------------------------|----------------------------------|
|---------------------------------|----------------------------------|
|-8-8-8-8-8-8-8-8-8-8-8-8-8-8-8-8-|-7-7-7-7-7-7-7-7-7-7-7-7-7-7-7-7--|
|-5-5-5-5-5-5-5-5-5-5-5-5-5-5-5-5-|-4-4-4-4-4-4-4-4-4-4-4-4-4-4-4-4--|
|---------------------------------|----------------------------------|


 Chorus
 4/4
  Gtr I
   S  S  S  S  S  S  S  S  S  S  S  S  S  S  S  S
|-------------------------------------------------|
|-------------------------------------------------|
|-10-10-10-10-10-10-10-10-10-10-10-10-10-10-10-10-|
|--x--x--x--x--x--x--x--x--x--x--x--x--x--x--x--x-|
|--8--8--8--8--8--8--8--8--8--8--8--8--8--8--8--8-|
|-------------------------------------------------|
|
| Gtr II
|  Q           Q           Q           Q
|-------------------------------------------------|
|-------------------------------------------------|
|-------------------------------------------------|
|--0-----------0-----------0-----------0----------|
|--0-----------0-----------0-----------0----------|
|--0-----------0-----------0-----------0----------|


   S  S  S  S  S  S  S  S  S  S  S  S  S  S  S  S
|-------------------------------------------------|
|-------------------------------------------------|
|-10-10-10-10-10-10-10-10-10-10-10-10-10-10-10-10-|
|--x--x--x--x--x--x--x--x--x--x--x--x--x--x--x--x-|
|--8--8--8--8--8--8--8--8--8--8--8--8--8--8--8--8-|
|-------------------------------------------------|
|
|  Q           Q           Q           Q
|-------------------------------------------------|
|-------------------------------------------------|
|-------------------------------------------------|
|--0-----------0-----------0-----------0----------|
|--0-----------0-----------0-----------0----------|
|--0-----------0-----------0-----------0----------|


   S  S  S  S  S  S  S  S  S  S  S  S  S  S  S  S
|-------------------------------------------------|
|-------------------------------------------------|
|-15-15-15-15-15-15-15-15-15-15-15-15-15-15-15-15-|
|--x--x--x--x--x--x--x--x--x--x--x--x--x--x--x--x-|
|-13-13-13-13-13-13-13-13-13-13-13-13-13-13-13-13-|
|-------------------------------------------------|
|
|  Q           Q           Q           Q
|-------------------------------------------------|
|-------------------------------------------------|
|-------------------------------------------------|
|--8-----------8-----------8-----------8----------|
|--5-----------5-----------5-----------5----------|
|--5-----------5-----------5-----------5----------|


   S  S  S  S  S  S  S  S  S  S  S  S  S  S  S  S
|--------------------------------------------------|
|--------------------------------------------------|
|-15-15-15-15-15-15-15-15-15-15-15-15-15-15-15-15--|
|--x--x--x--x--x--x--x--x--x--x--x--x--x--x--x--x--|
|-13-13-13-13-13-13-13-13-13-13-13-13-13-13-13-13--|
|--------------------------------------------------|
|
|  Q           Q           Q           Q
|--------------------------------------------------|
|--------------------------------------------------|
|--------------------------------------------------|
|--8-----------8-----------8-----------8-----------|
|--5-----------5-----------5-----------5-----------|
|--5-----------5-----------5-----------5-----------|


   S  S  S  S  S  S  S  S  S  S  S  S  S  S  S  S
|-------------------------------------------------|
|-------------------------------------------------|
|-19-19-19-19-19-19-19-19-19-19-19-19-19-19-19-19-|
|--x--x--x--x--x--x--x--x--x--x--x--x--x--x--x--x-|
|-17-17-17-17-17-17-17-17-17-17-17-17-17-17-17-17-|
|-------------------------------------------------|
|
|  Q           Q           Q           Q
|-------------------------------------------------|
|-------------------------------------------------|
|-------------------------------------------------|
|-12----------12----------12----------12----------|
|--8-----------8-----------8-----------8----------|
|--8-----------8-----------8-----------8----------|


   S  S  S  S  S  S  S  S  S  S  S  S  S  S  S  S
|--------------------------------------------------|
|--------------------------------------------------|
|-19-19-19-19-19-19-19-19-19-19-19-19-19-19-19-19--|
|--x--x--x--x--x--x--x--x--x--x--x--x--x--x--x--x--|
|-17-17-17-17-17-17-17-17-17-17-17-17-17-17-17-17--|
|--------------------------------------------------|
|
|  Q           Q           Q           Q
|--------------------------------------------------|
|--------------------------------------------------|
|--------------------------------------------------|
|-12----------12----------12----------12-----------|
|--8-----------8-----------8-----------8-----------|
|--8-----------8-----------8-----------8-----------|


   S  S  S  S  S  S  S  S  S  S  S  S  S  S  S  S
|-------------------------------------------------|
|-------------------------------------------------|
|-15-15-15-15-15-15-15-15-15-15-15-15-15-15-15-15-|
|--x--x--x--x--x--x--x--x--x--x--x--x--x--x--x--x-|
|-13-13-13-13-13-13-13-13-13-13-13-13-13-13-13-13-|
|-------------------------------------------------|
|
|  Q           Q           Q           Q
|-------------------------------------------------|
|-------------------------------------------------|
|-------------------------------------------------|
|--8-----------8-----------8-----------8----------|
|--5-----------5-----------5-----------5----------|
|--5-----------5-----------5-----------5----------|


   S  S  S  S  S  S  S  S  S  S  S  S  S  S  S  S
|--------------------------------------------------|
|--------------------------------------------------|
|-18-18-18-18-18-18-18-18-18-18-18-18-18-18-18-18--|
|--x--x--x--x--x--x--x--x--x--x--x--x--x--x--x--x--|
|-16-16-16-16-16-16-16-16-16-16-16-16-16-16-16-16--|
|--------------------------------------------------|
|
|  Q           Q           Q           Q
|--------------------------------------------------|
|--------------------------------------------------|
|--------------------------------------------------|
|--7-----------7-----------7-----------7-----------|
|--x-----------x-----------x-----------x-----------|
|--7-----------7-----------7-----------7-----------|


 Outro
  E. E. E E. E. E   E. E. E E. E. E
|-----------------|-----------------|
|-4-----4----4----|-4-----4----4----|
|----7----------7-|----7----------7-|
|-----------------|-----------------|
|---------6-------|---------6-------|
|-----------------|-----------------|
|
| Q.    E Q.    E   Q.    E Q.    E
|-----------------|-----------------|
|-----------------|-----------------|
|-----------------|-----------------|
|-0-------0-------|-0-------0-------|
|-0-------0-------|-0-------0-------|
|-0-------0-------|-0-------0-------|


                             T       T  T     T  T  T
  E. E. E E. E. E   E. E. E  S   S   S  S S   S  S  S
|-----------------|---------18--11p-------------22----|
|-4-----4----4----|-4-----4---------15----------------|
|----7----------7-|----7---------------17-0p-13----20-|
|-----------------|-----------------------------------|
|---------6-------|-----------------------------------|
|-----------------|-----------------------------------|
|
| Q.    E Q.    E   Q.    E  Q.                  E
|-----------------|-----------------------------------|
|-----------------|-----------------------------------|
|-----------------|-----------------------------------|
|-0-------0-------|-0--------0------------------------|
|-0-------0-------|-0--------0------------------------|
|-0-------0-------|-0--------0------------------------|


    E.  E.  E  E.  E.  E    E.  E.  E  E.  E.  E
|------------------------|-----------------------|
|-/16------16-----16-----|-16------16-----16-----|
|------19-------------19-|-----19-------------19-|
|------------------------|-----------------------|
|-------------18---------|------------18---------|
|------------------------|-----------------------|
|
|   Q.      E  Q.      E    Q.      E  Q.      E
|------------------------|-----------------------|
|------------------------|-----------------------|
|------------------------|-----------------------|
|---0----------0---------|--0----------0---------|
|---0----------0---------|--0----------0---------|
|---0----------0---------|--0----------0---------|


                                      T       T  T     T  T  T
   E.  E.  E  E.  E.  E    E.  E.  E  S   S   S  S S   S  S  S
|-----------------------|------------18--11p-------------22----|
|-16------16-----16-----|-16------16---------15----------------|
|-----19-------------19-|-----19----------------17-0p-13----20-|
|-----------------------|--------------------------------------|
|------------18---------|--------------------------------------|
|-----------------------|--------------------------------------|
|
|  Q.      E  Q.      E    Q.      E  Q.                  E
|-----------------------|--------------------------------------|
|-----------------------|--------------------------------------|
|-----------------------|--------------------------------------|
|--0----------0---------|--0----------0------------------------|
|--0----------0---------|--0----------0------------------------|
|--0----------0---------|--0----------0------------------------|


  Gtrs I, II
  W          +W           +W           +W
|----------|------------|------------|--------*|
|----------|------------|------------|--------*|
|----------|------------|------------|--------*|
|-0--------|-(0)--------|-(0)--------|-(0)----*|
|-0--------|-(0)--------|-(0)--------|-(0)----*|
|-0--------|-(0)--------|-(0)--------|-(0)----*|



***************************************************************************************
***************************************************************************************





Comments


Popular Oh Sleeper tabs & chords
I Will Welcome The Reaping 1 Tabs
Means To Believe Tabs
Means To Believe 1 Tabs
Means To Believe Intro Tabs
The Conscience Speaks Tabs
The Finisher Tabs
The Finisher 3 Tabs
World Without A Sun Tabs
World Without A Sun Intro Tabs
Means To Believe Ukulele


Song lyrics



↑ Back to top | Tablatures and chords are parodies/interpretations of the original songs. You may use it for private study, scholarship, research or language learning purposes only
© 2014 AZChords.com Contact us | Privacy policy | DMCA | Add/correct tabs | Request tabs | Top 50 tabs