>
 >
The Fire Dawn

The Fire Dawn Guitar Tabs

Oh Sleeper - The Fire Dawn chords, tabs, tablatures, lyrics

Guitar lessons | Add/correct | Request | Top 50 tabs Artists:  A B C D E F G H I J K L M N O P Q R S T U V W X Y Z 0-9

The Fire Dawn Guitar Tabs – Oh Sleeper

CD, Sheet music, Poster

Do you like The Fire Dawn? Share with your friends now
Tabs
[The Fire Dawn]
[Son Of The Morning]
[Oh Sleeper]

Tuning: Drop D

ill hav a gp ready when i can figure out Riff 6 good.. :P

As requested by Alpha_Wolf!

[Riff 1, Guitar 1 & 2] - [00:00] - [00:18]----------------------------------| 2x
- --------------------------------------------------------------------------|
- --------------------------------------------------------------------------|
- --------------------------------------------------------------------------|
- --------------------------------------------------------------------------|
- -0-0---0-----0-0---0-----0-0---0-----0-0---0---0-0-0---0-----0-0---0------|
- -0-0---0-----0-0---0-----0-0---0-----0-0---0---0-0-0---0-----0-0---0------|
PM ...................................................................
-
- -------------------------------------------------------------------------|
- ---------4-----------4-----------4-----------4---------------------------|
- -------7---7-------7---7-------7---7-------7---7---------5-----------5---|
- -------------------------------------------------------8---8-------8---8-|
- ---5h6---------5h6---------5h6---------5h6---------3/5---------3/5-------|
- -0-----------0-----------0-----------0-----------0-----------0-----------|


- --------------------------|
- --------------------------|
- --------------------------|
- -------------3-3-3-3-3-3--|
- -0-0---0-----1-1-1-1-1-1--|
- -0-0---0------------------|
PM .......
-
- --------------------------|
- ---------10--101010101010-|
- -------------x-x-x-x-x-x--|
- -------8---8-8-8-8-8-8-8--|
- ---3/5--------------------|
- -0------------------------|

----------------------------------------------------------------------------

[Riff 2, Guitar 1 & 2] - [00:18] - [00:35]
- ---------------------------------17-------15-----------------------| 1
- -------------------------------------------------------------------|
- -0-------------------------14h15----15\14--------------------------|
- ---8-----------------------------------------13p12p10\8-10-13-12-0-|
- -----12--------6-----12h13-----------------------------------------|
- -----------0000--0-0-----------------------------------------------|
PM           ....
-
- ------------------------------------------15-----------------------|
- -------------------------------------------------------------------|
- -0-------------8---------------------------------------------------|
- ---8-----------------------------------------13p12p10\8-10-13-12-0-|
- -----12------------------------------------------------------------|
- -----------0000--0-0-----------------------------------------------|
PM           ....


- -------------------------------------10-----------------| 2
- --------------------------------------------------------|
- -0--------------------------------------8p7p5-----7-5---|
- ---8------------------------------------------7-8-----0-|
- -----12--------6----------------------------------------|
- -----------0000--0-0------------------------------------|
PM           ....
-
- -------------------------------------10-----------------|
- --------------------------------11----------------------|
- -0-------------8------------------------8p7p5-----7-5---|
- ---8---------------------7----8----7----------7-8-----0-|
- -----12--------------6h8---10---------------------------|
- -----------0000--0-0------------------------------------|
PM           ....


- ---------------------------------17-------15-----------------------| 3
- -------------------------------------------------------------------|
- -0-------------------------14h15----15\14--------------------------|
- ---8-----------------------------------------13p12p10\8-10-13-12-0-|
- -----12--------6-----12h13-----------------------------------------|
- -----------0000--0-0-----------------------------------------------|
PM           ....
-
- ---------------------------------17-------15-----------------------|
- -------------------------------------------------------------------|
- -0-------------8-----------14h15----15\14--------------------------|
- ---8-----------------------------------------13p12p10\8-10-13-12-0-|
- -----12--------------12h13-----------------------------------------|
- -----------0000--0-0-----------------------------------------------|
PM           ....


- -------------------------------------10-----------------| 4
- --------------------------------11----------------------|
- -0--------------------------------------8p7p5-----7-5---|
- ---8---------------------7----8----7----------7-8-----0-|
- -----12--------6-----6h8---10---------------------------|
- -----------0000--0-0------------------------------------|
PM           ....
-
- -------------------------------------10-----------------|
- --------------------------------11----------------------|
- -0-------------8------------------------8p7p5-----7-5---|
- ---8---------------------7----8----7----------7-8-----0-|
- -----12--------------6h8---10---------------------------|
- -----------0000--0-0------------------------------------|
PM           ....

----------------------------------------------------------------------------

[Riff 3] - [00:35] - [00:41]------------| 2x
- --------------------------------------|
- --------------------------------------|
- -0-------------0----------------------|
- ---8-------------8-----------7---8p7--|
- -----12------------12-----------------|
- -----------0-0-----------8888--0------|
PM           ...           ....  .

[Riff 4, Guitar 1 & 2] - [00:41] - [00:47]
- ----------------------------------| 1
- ---4-----------4------------------|
- -----7-----------7----------------|
- ----------------------------------|
- -5-----------5-----------8---10p8-|
- ---------0-0---------5555--0------|
PM         ...         ....
-
- ----------------------------------|
- ----------------------------------|
- ----------------------------------|
- -0h10p8------0h10p8---------------|
- -------------------------8---10p8-|
- ---------0-0---------5555--0------|
PM         ...         ....


- ---------------------------------| 2
- ---4-----------4-----------------|
- -----7-----------7---------------|
- ---------------------------------|
- -5-----------5-----------8-------|
- ---------0-0---------5555--0-0-8-|
PM         ...         ....
-
- ---------------------------------|
- ---------------------------------|
- ---------------------------------|
- -0h10p8------0h10p8--------------|
- -------------------------8-------|
- ---------0-0---------5555--0-0-8-|
PM         ...         ....

[Riff 3] - [00:47] - [00:53] - 2x
[Riff 4, Guitar 1 & 2] - [00:53] - [00:59]

----------------------------------------------------------------------------

[Riff 5a] - [00:59] - [01:02]
- ------------------------------------17-------|
- ---------------------------------------------|
- -10-9-10-12-10-12-14-12-14-15-14-15----15-14-|
- ---------------------------------------------|
- ---------------------------------------------|
- ---------------------------------------------|

[Riff 5b] - [00:59] - [01:02]
- ---------------------------------------------|
- ---------------------------------------------|
- -7-5-7-9-7-9-10-9-10-12-10-12----------------|
- ---------------------------------------------|
- ---------------------------------------------|
- ---------------------------------------------|

----------------------------------------------------------------------------

I cannot figure this part out for the life of me. way too much going on
lol but i do hav the basic chords played through the section.. you can
play with them n see what you think lol

[Riff 6] - [01:02] - [01:26]
- -----8-----------------------|
- -10--8---10---------4--------|
- -7---8---10--10-----5-----5--|
- -8---10--12--10--5--5--0--3--|
- ---------12--8---5--3--0--1--|
- -------------8---5-----0-----|

play each for two bars then..

[Riff 7, Guitar 1 & 2] - [01:26] - [01:38]
- ----------|---------------------------------|
- ----------|---------------------------------|
- -3--3--3--|-3-3-3-3-3-3-3-3-2-2-2-2-6-6-6-6-|
- -x--x--x--|-x-x-x-x-x-x-x-x-x-x-x-x-x-x-x-x-| and end with this.
- -0--1--0--|-1-1-1-1-1-1-1-1-0-0-0-0-4-4-4-4-|
- ----------|---------------------------------|
-
- ----------|---------------------------------|
- ----------|---------------------------------|
- -14-15-14-|-3-3-3-3-3-3-3-3-2-2-2-2-6-6-6-6-|
- -x--x--x--|-x-x-x-x-x-x-x-x-x-x-x-x-x-x-x-x-| and end with this.
- -12-13-12-|-1-1-1-1-1-1-1-1-0-0-0-0-4-4-4-4-|
- ----------|---------------------------------|

..also play these for two bars each.

messy.. incomplete.. i kno, you hate me lol

----------------------------------------------------------------------------

[Riff 1, Guitar 1 & 2] - [01:38] - [01:55] - 2x

----------------------------------------------------------------------------

[Riff 8] - [01:55] - [02:07]
- ---------------------------------17-------15-----------------------| 1
- -------------------------------------------------------------------|
- -0-------------------------14h15----15\14--------------------------|
- ---8-----------------------------------------13p12p10\8-10-13-12-0-|
- -----12--------6-----12h13-----------------------------------------|
- -----------0000--0-0-----------------------------------------------|
PM           ....
-
- ------------------------------------------15-----------------------|
- -------------------------------------------------------------------|
- -0-------------8---------------------------------------------------|
- ---8-----------------------------------------13p12p10\8-10-13-12-0-|
- -----12------------------------------------------------------------|
- -----------0000--0-0-----------------------------------------------|
PM           ....


- -------------------------------------10-----------------| 2
- --------------------------------------------------------|
- -0--------------------------------------8p7p5-----7-5---|
- ---8------------------------------------------7-8-----0-|
- -----12--------6----------------------------------------|
- -----------0000--0-0------------------------------------|
PM           ....
-
- -------------------------------------10-----------------|
- --------------------------------11----------------------|
- -0-------------8------------------------8p7p5-----7-5---|
- ---8---------------------7----8----7----------7-8-----0-|
- -----12--------------6h8---10---------------------------|
- -----------0000--0-0------------------------------------|
PM           ....


- ------------------------------------| 3
- ------------------------------------|
- -0----------------------------------|
- ---8------------------7-----0h5-----|
- -----12--------0h7h10---8-------7---|
- -----------0-0----------------------|
PM           ...
-
- ------------------------------------|
- ------------------------------------|
- -0----------------------------------|
- ---8------------------7-----0h5-----|
- -----12--------0h7h10---8-------7---|
- -----------0-0----------------------|
PM           ...

----------------------------------------------------------------------------

[Riff 9, Guitar 1 & 2] - [02:07] - [02:19]--------------------------| 2x
- ------------------------------------------------------------------|
- ------------------------------------------------------------------|
- ------------------------------------------------------------------|
- ------------------------------------------------------------------|
- ------------------------------------------------------------------|
- -0-8-7\--00005-0-0-7-8-------------0h10h12---------8-8----5-7-88--|
PM         ....
-
- -----------------------------------------------------------------|
- -----------------------------------------------------------------|
- -----------------------------------------5---5---5-3-3-3-3-3-3-3-|
- -------------------------7---7---7---7-8---8---8---7-7-7-7-7-7-7-|
- -----------------------5---5---5---5-----------------------------|
- -----------------------------------------------------------------|

[Riff 10, Guitar 1 & 2] - [02:19] - [02:25]
- -----------------------------------------------------------------|
- -----------------------------------------------------------------|
- -----------------------------------------------------------------|
- -----------------------------------------------------------------|
- -----------------------------------------------------------------|
- -7-10-8\-55557-5---5-7-8-----------0h12h13---------8-8----5-7-88-|
PM         ....
-
- -----------------------------------------------------------------|
- -----------------------------------------------------------------|
- -------------------------5---5---5---8---8---8---8-7-7-7-7---3---|
- -----------------------8---8---8---12--12--12--12--101010107---7-|
- -----------------------------------------------------------------|
- -----------------------------------------------------------------|

[Riff 9, Guitar 1 & 2] - [02:25] - [02:31]

----------------------------------------------------------------------------

[Riff 11a] - [02:31] - [02:37]
- ---------------------------------------------------|
- ---------------------------------------------------|
- ---------------------------------------------------|
- -1-1-1-1-1-1-1-1-1-1-1-1-1-1-1-1-3-3-3-3-3-3-3-3-3-|
- -1-1-1-1-1-1-1-1-1-1-1-1-1-1-1-1-3-3-3-3-3-3-3-3-3-|
- -1-1-1-1-1-1-1-1-1-1-1-1-1-1-1-1-3-3-3-3-3-3-3-3-3-|

[Riff 11b] - [02:31] - [02:37]
- ----------------------------10-6----------------------------------|
- ---------------------------------8--------------------------------|
- ----------------------8-7-8--------7-7-5-7-9-7-9-10-9-10-12-10-12-|
- -8-7-5-10-8-7-12-10-8---------------------------------------------|
- ------------------------------------------------------------------|
- ------------------------------------------------------------------|

[Riff 11c] - [02:31] - [02:37]
- ---------------------------15-10---------------------------------|
- ---------------------------------11------------------------------|
- ------------------------------------12-10-9-10-12-10-12-14-12-14-|
- -12-10-8-13-12-10-15-13-12---------------------------------------|
- -----------------------------------------------------------------|
- -----------------------------------------------------------------|

- ----------17-------|
- -------------------|
- -15-14-15----15-14-|
- -------------------|
- -------------------|
- -------------------|

----------------------------------------------------------------------------

[Riff 6] - [02:37] - [03:00]
[Riff 7, Guitar 1] - [03:00] - [03:12]

----------------------------------------------------------------------------

[Riff 12, Guitar 1 & 2] - [03:12] - [03:30]---------------------------------| 2x
- --------------------------------------------------------------------------|
- --------------------------------------------------------------------------|
- -------------------------------------------------5-----------5------------|
- -------------------------------------------------4-----------4------------|
- -1-----------1-----------1-----------1-----------3-----------3------------|
- -0-----------0-----------0-----------0------------------------------------|
-
- -------------------------------------------------------------------------|
- ---------4-----------4-----------4-----------4---------------------------|
- -------7---7-------7---7-------7---7-------7---7---------5-----------5---|
- -------------------------------------------------------8---8-------8---8-|
- ---5h6---------5h6---------5h6---------5h6---------3/5---------3/5-------|
- -0-----------0-----------0-----------0-----------0-----------0-----------|


- --------------------------|
- --------------------------|
- -3------------------------|
- -x-----------3-3-3-3-3-3--|
- -1-----------1-1-1-1-1-1--|
- --------------------------|
-
- --------------------------|
- ---------10--101010101010-|
- -------------x-x-x-x-x-x--|
- -------8---8-8-8-8-8-8-8--|
- ---3/5--------------------|
- -0------------------------|

----------------------------------------------------------------------------

[Riff 13] - [03:30] - [03:35]
- -----------------|
- -----------------|
- -----------------|
- -----------------|
- -0---------------|
- -0---------------|
PM .

----------------------------------------------------------------------------

[Symbols]

h     Hammer On
p     Pull Off
/     Slide Up
\     Slide Down
PM... Palm Mute notes with (...) under them
x     Dead Note

:D





Comments


Popular Oh Sleeper tabs & chords
Heavy Hands Chords
Reveries Of Flight Chords
Endseekers Intro Tabs
Means To Believe 1 Tabs
Means To Believe Intro Tabs
Reveries Of Flight 1 Tabs
The Finisher 3 Tabs
Vices Like Vipers 2 Tabs
We Are The Archers 3 Tabs
World Without A Sun Intro Tabs


Song lyrics



↑ Back to top | Tablatures and chords are parodies/interpretations of the original songs. You may use it for private study, scholarship, research or language learning purposes only
© 2014 AZChords.com Contact us | Privacy policy | DMCA | Add/correct tabs | Request tabs | Top 50 tabs