>
 >
Son Of The Morning

Son Of The Morning Guitar Tabs

Oh Sleeper - Son Of The Morning chords, tabs, tablatures, lyrics

Guitar lessons | Add/correct | Request | Top 50 tabs Artists:  A B C D E F G H I J K L M N O P Q R S T U V W X Y Z 0-9

Son Of The Morning Guitar Tabs – Oh Sleeper

CD, Sheet music, Poster

Do you like Son Of The Morning? Share with your friends now
Tabs
-------------------------------------------------------------------------------
                             Son Of The Morning - Oh, Sleeper
-------------------------------------------------------------------------------

Tuning: Drop D (DADGBE)

0:00 - 0:17
-  t        t    t
e|--------------------|
B|--------------------|
G|-15-0-7-8-12-0-14-0-|
D|--------------------|
A|--------------------|
D|--------------------|x12

Rhythm part under the tapping
e|------------------------------------|
B|------------------------------------|
G|------------------------------------|
D|-5-----------------10---------------|
A|-5-----------5-----10---------------|
D|-5----5-7-8----8---10----3-5-7--8-3-|x2

0:17-0:31
e|--------------|-----------------|-----------------|------------------|
B|--------------|-----------------|-----------------|------------------|
G|--------------|-----------------|-----------------|------------------|
D|-10-0---7-8---|---12-0---8-10---|-----------------|------------------|
A|--------------|-----------------|---12-0---8-10---|---12-0---8-10----|
D|------5-----0-|x4------7------0-|x4------8------8-|x4------8------11-|x4

0:31 - 0:38
(Rhythm plays the opens 8 times instead of 4)
-                    t    t    t    t    t    t
e|---------------|---------------------------------|
B|---------------|---16-3-15-4-16-3-15-3-16-4-15-4-|
G|---------------|---------------------------------|
D|---------------|---------------------------------|
A|-0-0-0-0---0-0-|---------------------------------|
D|-0-0-0-0---0-0-|x4-------------------------------|

0:38 - 0:52
e|--------------|---------------------|--------------|----------------------|
B|--------------|---------------------|--------------|-----------------8-10-|
G|--------------|---------------------|--------------|----------7-8-10------|
D|--------------|---------------------|-8-0----7-8---|---7-8-10-------------|
A|-5------------|----------7-8-10-8-7-|-----5------5-|----------------------|
D|---8-0-7--8-0-|x3-7-8-10------------|--------------|x3--------------------|

e|----------------|-------------------------------------------------------|
B|-11--------10---|-----------------8-10-11-10-8-10-11-10-8---------------|
G|----------------|----------7-8-10-------------------------10-8-7--------|
D|----8-7-8-----8-|---7-8-10---------------------------------------10-8-7-|
A|----------------|-------------------------------------------------------|
D|----------------|x3-----------------------------------------------------|

e|-------------------------------------|
B|-------------8-10-11-10-8------------|
G|------7-8-10--------------10-(10)/12-|
D|-8-10--------------------------------|
A|-------------------------------------|
D|-------------------------------------|

0:52 - 1:20 (Chorus)
I'm not going to write out the strum pattern to save space since it's easy to figure out.
e|---------------------------------------------------|
B|---------------------------------------------------|
G|---------------------------------------------------|
D|-8-----0-----8-----0-----8-----0-----8-----5---1---|
A|-8-----0-----8-----0-----8-----0-----8-----5---1---|
D|-8-----0-----8-----0-----8-----0-----8-----5---1---|

Lead part that comes in half way through the chorus. Tremolo pick each note four times.
e|-----------------------------------------|
B|-10--------10----------------------------|
G|----7-9-10----7-9-10-10-7-9-10-10-7-9-10-|
D|-----------------------------------------|
A|-----------------------------------------|
D|-----------------------------------------|x2

1:20 - 1:34
e|--------------|----------------|----------------|-------------------|
B|--------------|----------------|----------------|-------------------|
G|--------------|----------------|----------------|-------------------|
D|--------------|----------------|----------------|-------------------|
A|-5------------|---8-5---5--8---|-12-0---8--10---|---12-0---8--10----|
D|---8-0-7--8-0-|x4-----5------5-|------8-------8-|x4------8-------11-|x4

1:34 - 1:55 Here's the breakdown. I'll tab out the rhythm for you guys.
e|--------------------------------------------------------|
B|--------------------------------------------------------|
G|--------------------------------------------------------|
D|---------0------------------------0----------------0----|
A|-0-0-0-0-0--0-----0-0-0-0-0-0-0-0-0--0-----0-0-0-0-0--0-|
D|-0-0-0-0----0-----0-0-0-0-0-0-0-0----0-----0-0-0-0----0-|

e|----------------------------------------------------------------------|
B|----------------------------------------------------------------------|
G|----------------------------------------------------------------------|
D|---------------------0----------------0--------------------------0----|
A|-0-0-0-0-0-0-0-0-0-0-0--0-----0-0-0-0-0--0-----0-0-0-0-0-0-0-0-0-0--0-|
D|-0-0-0-0-0-0-0-0-0-0----0-----0-0-0-0----0-----0-0-0-0-0-0-0-0-0----0-|

e|---------------------------------------------------|
B|---------------------------------------------------|
G|---------------------------------------------------|
D|---------------------0------------------------0----|
A|-0-0-0-0-0-0-0-0-0-0-0--0-----0-0-0-0-0-0-0-0-0--0-|
D|-0-0-0-0-0-0-0-0-0-0----0-----0-0-0-0-0-0-0-0----0-|x2(only for this line)

e|-------------------------|
B|-------------------------|
G|-------------------------|
D|-------------------------|
A|-0-0-0-0-0-0-0-0-0-0-0-0-|
D|-0-0-0-0-0-0-0-0-0-0-0-0-|

1:55 - 2:09
e|-------------------------------------------------------------------------|
B|-------------------------------------------------------------------------|
G|-7----------------10----------------7----------------10------------------|
D|-7------------8-----------------8---8------------8-------------------8---|
A|-5--------------0--8---8-10-12----0-8--------------0--8-----8-10-12----0-|
D|-8---8-10-12-------0----------------8---8-10-12-------0------------------|

2:09 - 2:23
e|----------------|------------------------|--------------|
B|----------------|------------------------|--------------|
G|----------------|-----------9-10-12-10-9-|--------------|
D|-12-0---8--10-7-|---8-10-12--------------|-8-0---5--7---|
A|----------------|------------------------|-----5------8-|
D|------8---------|x3----------------------|--------------|x3

e|--------------------|----------------|----------------------------------|
B|---------------8-10-|-11--------10---|-----------------8-10-10-11-10----|
G|--------7-8-10------|----------------|----------7-8-10---------------12-|
D|-7-8-10-------------|----8-7-8-----8-|---7-8-10-------------------------|
A|--------------------|----------------|----------------------------------|
D|--------------------|----------------|x3--------------------------------|

e|----------------------------------------------13-15-13-------------20\-|
B|-11-13-11----13-15-13----------------13-15-17----------17-17-17-18-----|
G|----------14----------15-14-12-14-15-----------------------------------|
D|-----------------------------------------------------------------------|
A|-----------------------------------------------------------------------|
D|-----------------------------------------------------------------------|

Now play the chorus again. Towards the end, the chords switch to the following, each one 
a single strum.

2:53 - 3:27
e|-------------------------------------------|
B|-------------------------------------------|
G|-------------------------------------------|
D|-------------------------------------------|
A|-12-----12-----0-----0-----12-----12-----0-|
D|--8------8-----0-----0------8------8-----0-|


************************************

| /   slide up
| \   slide down
| h   hammer-on
| p   pull-off
| ~   vibrato
| +   harmonic
| x   Mute note
| b   Bend
| pb  Pre-bend
| br  Bend release
| pbr Pre-bend release
| brb Bend release bend

************************************





Comments


Popular Oh Sleeper tabs & chords
Building The Nations Tabs
Commissioned By Kings Tabs
I Will Welcome The Reaping 1 Tabs
The Finisher Tabs
Vices Like Vipers Tabs
Vices Like Vipers 1 Tabs
Vices Like Vipers 5 Tabs
We Are The Archers Tabs
World Without A Sun Tabs
Reveries Of Flight Ukulele


Song lyrics



↑ Back to top | Tablatures and chords are parodies/interpretations of the original songs. You may use it for private study, scholarship, research or language learning purposes only
© 2014 AZChords.com Contact us | Privacy policy | DMCA | Add/correct tabs | Request tabs | Top 50 tabs