» » »

Oh Sleeper, Means To Believe Tabs (ver.1)

Artists:  A B C D E F G H I J K L M N O P Q R S T U V W X Y Z # 

Means To Believe Tabs (ver.1)

Oh Sleeper Tabs
 Rating:
4.3/5 (6 votes)
Means To Believe lessons Tabs too difficult? Try these video lessons and learn fast
                Verse 1:
repeat 2x
----0----------0------------0-----------------------------------------------|
-------0---0-------0---0--------0---0---------------------------------------|
-----0---0-------0---0--------0---0-----------------------------------------|
----------------------------------------------------------------------------|
--3-----------5-------------------------------------------------------------|
--------------------------0-------------------------------------------------|



----0----------0------------0-----------0-----------------------------------|
-------0---0-------0---0--------0---0-------0---0---------------------------|
-----0---0-------0---0--------0---0-------0---0-----------------------------|
----------------------------------------------------------------------------|
--3-----------5------------------------5------------------------------------|
--------------------------3-------------------------------------------------|


----0----------0-----------------------------------------------------------|
-------0---0-------0---0---------------------------------------------------|
-----0---0-------0---0-----------------------------------------------------|
---------------------------------------------------------------------------|
--3-----------5------------------------------------------------------------|
--------------------------0------------------------------------------------|

Chorus:
Repeat 3x
----------------------------------------------------------------------------|
----------------------------------------------------------------------------|
---5-5-5-5-5-5-5-5-5-5-5-5--7-7-7-7-7-7-7-7-7-7-7-7-------------------------|
----------------------------------------------------------------------------|
--3-3-3-3-3-3-3-3-3-3-3-3--5-5-5-5-5-5-5-5-5-5-5-5--------------------------|
----------------------------------------------------------------------------|


---------------------------------------------------------------------------|
---------------------------------------------------------------------------|
---5-5-5-5-5-5-5-5-5-5-5-5--7-7-7-7-7-7-7-7-7-7-7-7------------------------|
-----------------------------------------------------2-2-2-2-2-2-2-2-2-2-2-|
---3-3-3-3-3-3-3-3-3-3-3-3--5-5-5-5-5-5-5-5-5-5-5-5--2-2-2-2-2-2-2-2-2-2-2-|
---------------------------------------------------------------------------|

verse 2:
repeat 2x
----------------------------------------------------------------------------|
----------------------------------------------------------------------------|
---5-5-5-5-5-5-5-5-5-5-5-5--7-7-7-7-7-7-7-7-7-7-7-7-------------------------|
-----------------------------------------------------2-2-2-2-2-2-2-2-2-2-2--|
---3-3-3-3-3-3-3-3-3-3-3-3--5-5-5-5-5-5-5-5-5-5-5-5--2-2-2-2-2-2-2-2-2-2-2--|
----------------------------------------------------------------------------|


----------------------------------------------------------------------------|
----------------------------------------------------------------------------|
---5-5-5-5-5-5-5-5-5-5-5--7-7-7-7-7-7-7-7-7-7-7-7---------------------------|
---------------------------------------------------5-5-5-5-5-5-5-5----------|
---3-3-3-3-3-3-3-3-3-3-3--5-5-5-5-5-5-5-5-5-5-5-5---------------------------|
---------------------------------------------------3-3-3-3-3-3-3-3----------|

--------------------------|
--------------------------|
--7-7-7-7-7-7-7-7-7-7-7---|
--------------------------|
--5-5-5-5-5-5-5-5-5-5-5---|
--------------------------|

----------------------------------------------------------------------------|
----------------------------------------------------------------------------|
---5-5-5-5-5-5-5-5-5-5-5-5--7-7-7-7-7-7-7-7-7-7-7-7-------------------------|
-----------------------------------------------------2-2-2-2-2-2-2-2-2-2-2--|
---3-3-3-3-3-3-3-3-3-3-3-3--5-5-5-5-5-5-5-5-5-5-5-5--2-2-2-2-2-2-2-2-2-2-2--|
----------------------------------------------------------------------------|


Chorus:

outro:
----------------------------------------------------------------------------|
----------------------------------------------------------------------------|
---5-5-5-5-5-5-5-5-5-5-5-5--7-7-7-7-7-7-7-7-7-7-7-7-------------------------|
-----------------------------------------------------2-2-2-2-2-2-2-2-2-2-2--|
---3-3-3-3-3-3-3-3-3-3-3-3--5-5-5-5-5-5-5-5-5-5-5-5--2-2-2-2-2-2-2-2-2-2-2--|
----------------------------------------------------------------------------|
            
Submit corrections

comments powered by Disqus
↑ Back to top | Oh Sleeper Tabs for Means To Believe. Lyrics for acoustic guitar and electric guitar. Tablatures and chords are parodies/interpretations of the original songs. You may use it for private study, scholarship, research or language learning purposes only