» » »

I Will Welcome The Reaping Tabs (ver.1)

Artists:  A B C D E F G H I J K L M N O P Q R S T U V W X Y Z # 

I Will Welcome The Reaping Tabs (ver.1)

Oh Sleeper
Rating:
0/5 (0 votes)

Hard to play? Try these video lessons and learn fast.
                I Will Welcome the Reaping

| /  slide up
| \  slide down
| h  hammer-on
| p  pull-off
| ~  vibrato
| +  harmonic
| .  palm mute

"Intro"
d|------------------------|
A|------------------------|
F|--7/-14---7/-15---------|
C|------------------------|
G|--5/-13---5/-12-13------|
C|--------0---------12p0--|
          .

Play RIFF 1 twice.

"Like maggots, they breed with headlines, dining
the wounds in breathless cadavers.  Mirror blind
and aimed for gold, Now watch a terror turn on
its own."

RIFF 1
d|----------------------|----------------------|-----------------------|
A|----------------------|----------------------|-----------------------|
F|-7/-14---7/-15--------|-7/-15---7/-15--------|-7/-14---7/-15---------|
C|----------------------|----------------------|-----------------------|
G|-5/-13---5/-12-13-----|-5/-12---5/-12-13-----|-5/-13---5/-12-13------|
C|-------0---------12p0-|-------0---------12p0-|-------0---------12p0--|
         .                      .                      .
d|------------------------|
A|------------------------|
F|------------------------|
C|-8-8--7-7---------------|
G|---------------5-----3--|
C|-8-8--7-7-2222---2-3----|
            ....

The lead guitar changes it up just at the end.

d|----------------------|---------------------------|
A|----------------------|---------------------------|
F|-7/-14---7/-15-14-----|--------------------3------|
C|-----------------12p0-|--8-8p0--7-7p0-0h3h5-5-----|
G|-5/-13---5/-12--------|-------------------------3-|
C|-------0--------------|-----------------------3---|
         .

RIFF 2
I'll put numbers below to show the rhythm instead of
typing it all out.

"They race and they race to the carcass rot to feed."

Both Guitars
d|--------------|-----------------------------|-----------|
A|--------------|-----------------------------|-----------|
F|--------------|-----------------------------|-----------|
C|--------------|-----------------------------|-----------|
G|-----------55-|-5555-55-555-----------------|-555-5-5-5-|
C|-3-3-2-2\1-11-|-1111-11-111-...-------------|-111-3-3-3-|
                   x4  x2 x3 x4 x2 x3 x4 x2 x3

NEXT PART

"And just past decay, this design delivers life,
but they prefer to play cancer.  In chase for the
sky, towers uprise. In fear, the earth quakes for
what's forgot."

The Rhythm Guitar plays RIFF 1 twice again.

The Lead Guitar plays RIFF 1 once, but the second
time plays...

d|----------------------|----------------------|-----------------------|
A|----------------------|----------------------|-----------------------|
F|-7/-14---7/-15-14-----|-7/-15---7/-15-14-----|-7/-14---7/-15-14------|
C|-----------------12p0-|-----------------12p0-|-----------------12p0--|
G|-5/-13---5/-12--------|-5/-12---5/-12--------|-5/-13---5/-12---------|
C|-------0--------------|-------0--------------|-------0---------------|
         .                      .                      .

d|---------------------------|
A|---------------------------|
F|--------------------3------|
C|--8-8p0--7-7p0-0h3h5-5-----|
G|-------------------------3-|
C|-----------------------3---|

Then a sort of alternate RIFF 2

"They cut like the butchers with pride as
their cleavers, as the tide prowls their shores."

d|------|-----------------------------|-----------|
A|------|-----------------------------|-----------|
F|------|-----------------------------|-----------|
C|------|-----------------------------|-----------|
G|-5555-|-5555-55-555-----------------|-555-5-5-5-|
C|-1111-|-1111-11-111-...-------------|-111-3-3-3-|
           x4  x2 x3 x4 x2 x3 x4 x2 x3

RIFF 3

"They never listened when we screamed-"

Rhythm Guitar
d|------------------------------|--|-------------------------|
A|------------------------------|--|-------------------------|
F|------------------------------|--|-------------------------|
C|------------------------------|x3|-------------------------|
G|--5---5------5---------5------|--|--5---5-----5-----5-5-5--|
C|----1---1------1--1--1---1--1-|--|----1---1-----1-1-3-3-3--|

Lead Guitar
d|------------------------------|--|--------------------------------|
A|------------------------------|--|--------------------------------|
F|-14--15-----14--------15------|--|-14--15-----14------------------|
C|---12--13-13--12-12-12--13-13-|x3|---12--13-13--12-12-13p0-8p0----|
G|------------------------------|--|----------------------------8b--|
C|------------------------------|--|--------------------------------|

RIFF 4

"'Wash the blood from your hands!
Rip off the veils! Wash the blood from your
hands and run, see what you forgot!'"

Rhythm Guitar
d|-------------|--|-------------------------------------|
A|-------------|--|-------------------------------------|
F|-------------|--|-7-7--7-7--7-7--7-7--8-8--8-8--8-8---|
C|-0-----------|x3|-------------------------------------|
G|-0-----5-5-5-|--|-5-5--5-5--5-5--5-5--5-5--5-5--5-5---|
C|-0---0-3-3-3-|--|-------------------------------------|
       .

Lead Guitar- This part is a bit shaky in my mind,
so mess around with it.
d|-------------------------------------------|
A|------6---------6---------6----------------|
F|-------7\3-------7\3-------7\3-8p0---------|
C|-0h3/7-----0h3/7-----0h3/7---------8p0-----|
G|---------------------------------------8b--|
C|-------------------------------------------|

d|------------------|
A|----------18------|
F|------------19\15-|
C|--12h15/19--------|x4
G|------------------|
C|------------------|

d|----------15------|
A|------------16\12-|
F|--9h12/16---------|
C|------------------|x7
G|------------------|
C|------------------|

d|------------------|
A|------------------|
F|---------10-------|
C|--7h10/14--14\10--|
G|------------------|
C|------------------|

RIFF 5

"Then the clouds met the sand as the cyclones began In
epic charge rose the hordes, all branches and thorns.
As the stone from their walls broke legs as they crawled,
The stars had no mercy, they screamed for blood in their
fall.  Six eyes pierce the night and now..."

Lead Guitar
d|---------------------|--|-------------------------|---------------------|--|
A|---------------------|--|-------------------------|---------------------|--|
F|-10-10-12-12-7-7-7-7-|--|-12-12-13-13-10-10-10-10-|-10-10-12-12-7-7-7-7-|--|
C|---------------------|x5|-------------------------|---------------------|x2|(x2)
G|--8--8-10-10-5-5-5-5-|--|-10-10-11-11--8--8--8--8-|--8--8-10-10-5-5-5-5-|--|
C|---------------------|--|-------------------------|---------------------|--|

Rhythm Guitar
d|-----------------------------------------|
A|-----------------------------------------|
F|-----------------------------------------|
C|-0-------8-------0-------8-------5-------|
G|-0-(x32)-8-(x32)-0-(x32)-8-(x16)-5-(x16)-|
C|-0-------8-------0-------8-------5-------|

d|-----------------------------------------|
A|-----------------------------------------|
F|-----------------------------------------|
C|-00------88------00------88------55------|
G|-00-(x8)-88-(x8)-00-(x8)-88-(x4)-55-(x4)-|
C|-00------88------00------88------55------|


RIFF 6-Buildup

"24 teeth in each of the 3 makes 72 white knives;
your new ending."

Rhythm Guitar
d|----------------------------------------|
A|----------------------------------------|
F|----------------------------------------|
C|----------------------------------------|x2
G|-0-0-0---0----0--0--0-1-0-0---0---0--0--|
C|-0-0-0---0----0--0--0-1-0-0---0---0--0--|
                        . .

Lead Guitar- Play this a lot with a slight
muting.
d|----------------------------------------|
A|----------------------------------------|
F|----------------------------------------|
C|----------------------------------------|
G|----------------------------------------|
C|--0-------------------------------------|

d|----------------------------------------|
A|----------------------------------------|
F|--7------------------8------------------|
C|---(x16)--------------(x12)-------------|
G|--5------------------5------------------|
C|----------------------------------------|


RIFF 6

"With every slaughter bring your kingdom home."

Lead Guitar
d|-------------------------------|--|---------------------------|
A|-------------------------------|--|---------------------------|
F|--7/-15--7/-15-15---14-----15\-|--|--7/-15--7-----------------|
C|-------------------------------|x3|---------------------------|
G|--5/-12--5/-12-12---13\12--12\-|--|--5/-12--5---------5-----3-|
C|-------------------------------|--|-----------2-2-2-2---2-3---|
                                                . . . .
Rhythm Guitar
d|-------------------------------|--|---------------------------|
A|-------------------------------|--|---------------------------|
F|--------------------14-----15\-|--|---------------------------|
C|-------------------------------|x3|---------------------------|
G|--0~--0-0-----------13\12--12\-|--|--0~-0-0-----------5-----3-|
C|--0~--0-0----------------------|--|--0~-0-0---2-2-2-2---2-3---|
        .                                 .     . . . .

BRIDGE Pt. 1

"How are we deserving this pain we're feeling?  How are
we deserving this pain with healing?"

Both Guitars-(Rhythm plays this twice, the lead plays it
once, the first time)
d|------------------------|--|--------------------|--|
A|------------------------|--|--------------------|--|
F|---7--7----7------7-----|--|--3--3----3------3--|--|
C|------------------------|x2|--------------------|x2|
G|----5--5-5--5-5-5--5-5--|--|---1--1-1--1-1-1--1-|--|
C|------------------------|--|--------------------|--|
      .  . .  . . .  . .         .  . .  . . .  .

d|------------------------|--|----------------------|----------------------|
A|------------------------|--|----------------------|----------------------|
F|---7--7----7------7-----|--|--3--3----3------3----|--2--2----2------2----|
C|------------------------|x2|----------------------|----------------------|
G|----5--5-5--5-5-5--5-5--|--|---1--1-1--1-1-1--1-1-|---0--0-0--0-0-0--0-0-|
C|------------------------|--|----------------------|----------------------|
      .  . .  . . .  . .         .  . .  . . .  . .     .  . .  . . .  . .

Then, the second time, the lead plays this.

"And on trails these symphonies of agony...
Cant you see? We're still demanding self-pity.
Look to the moves of the things surrounding.
We're the only ones, the only ones who keep

d|-----------------------|
A|-----------------------|
F|--7--5----7------5-----|
C|---8--5-5--8-8-8--5-5--|x8
G|-----------------------|
C|-----------------------|
     .  . .  . . .  . .

BRIDGE Pt. 2

"One day the reaping will return, and we'll be butchers no more."

Lead Guitar
d|------------|
A|-------6----|
F|--------7\3-|
C|-0h3/7------|x4
G|------------|
C|------------|

d|------------------|
A|----------18------|
F|------------19\15-|
C|--12h15/19--------|x4
G|------------------|
C|------------------|

d|-----------|
A|------6----|
F|-------7\3-|
C|-0h3/7-----|x4
G|-----------|
C|-----------|

d|------------------|
A|----------18------|
F|------------19\15-|
C|--12h15/19--------|x2
G|------------------|
C|------------------|

d|----------15------|
A|------------16\12-|
F|--9h12/16---------|
C|------------------|x7
G|------------------|
C|------------------|

d|------------------|
A|------------------|
F|---------10-------|
C|--7h10/14--14\10--|
G|------------------|
C|------------------|

Rhythm Guitar
d|------------------------------------|
A|------------------------------------|
F|------------------------------------|
C|--1-------5-------1-------5-5--5-5--|
G|--1(x24)--5(x24)--1(x24)--5-5--5-5--|
C|--1-------5-------1-------5-5--5-5--|

d|--------------------------------------------------|
A|--------------------------------------------------|
F|--77-77-77-77-88-88-88-88-77-77-77-77-88-88-88----|
C|--55-55-55-55-55-55-55-55-55-55-55-55-55-55-55----|
G|--55-55-55-55-55-55-55-55-55-55-55-55-55-55-55----|
C|--55-55-55-55-55-55-55-55-55-55-55-55-55-55-55----|

FINAL RIFF

"Bring this slaughter home, and send everything above."

Lead Guitar
d|---------------------------------------------------------------|
A|---------------------------------------------------------------|
F|-----------------------------------7-7-10-10-12-12--7--7--7--7-|
C|---------------------------------------------------------------|
G|--00-00-00-00-00-00-00-00-00-00-00-5-5--8--8-10-10--5--5--5--5-|
C|--00-00-00-00-00-00-00-00-00-00-00-----------------------------|

d|--------------------------|--|----------------------------|
A|--------------------------|--|---------------15-15-15-15\-|
F|--10-10--12-12--7-7--7-7--|--|--10-10--12-12--------------|
C|--------------------------|x7|---------------13-13-13-13\-|
G|---8--8--10-10--5-5--5-5--|--|---8--8--10-10--------------|
C|--------------------------|--|----------------------------|

Rhythm Guitar
d|---------------------------------------------------------------|
A|---------------------------------------------------------------|
F|--------------------------------------14-14-15-15-12-12-12-12--|
C|---------------------------------------------------------------|x2
G|--00-00-00-00-00-00-00-00-00-00-00-00-12-12-13-13-10-10-10-10--|
C|--00-00-00-00-00-00-00-00-00-00-00-00--------------------------|

d|----------------------------------------------------------------|
A|--------------------------------------------------15-15-15-15\--|
F|--------------------------------------14-14-15-15---------------|
C|--------------------------------------------------13-13-13-13\--|
G|--00-00-00-00-00-00-00-00-00-00-00-00-12-12-13-13---------------|
C|--00-00-00-00-00-00-00-00-00-00-00-00---------------------------|

*6-27-08:  I just edited this a bit, fixed a few things that mighta been shady or just 
played the right way.  Anyways, still no ratings... feel free to if you want...
            
Hard to play? Try these video lessons and learn fast. | Correct




comments powered by Disqus
↑ Back to top | Tablatures and chords are parodies/interpretations of the original songs. You may use it for private study, scholarship, research or language learning purposes only