>
 >
In All Honesty

In All Honesty Guitar Tabs

Oh Sleeper - In All Honesty chords, tabs, tablatures, lyrics

Guitar lessons | Add/correct | Request | Top 50 tabs Artists:  A B C D E F G H I J K L M N O P Q R S T U V W X Y Z 0-9

In All Honesty Guitar Tabs – Oh Sleeper

CD, Sheet music, Poster

Do you like In All Honesty? Share with your friends now
Tabs

I just recently learned this song by ear and I think that it is pretty
accurate. Oh, Sleeper really stepped it up with this newer album. Enjoy!


[intro] (0:01-0:38)
"Rest I have not found..."
e|-----------------------------|
b|-----------------------------|
g|--12-------10--------9-------|
d|---X-(x8)---X-(x4)---X-(x4)--|  X4 
a|--10--------8--------7-------|
D|-----------------------------|

e|--------------------------|
b|--------------------------|
g|--12-----12-----10-----9--|
d|---X------X------X-----X--| 
a|--10-----10------8-----7--|
D|--------------------------|

[dirty southern riff] (0:39-0:51)
"It's like I was born to rip the flesh from her bones!"
e|--------------------------------------------------------------------------|
b|--------------------------------------------10-10-10----------------------|
g|--7-----7-7-7-------------------------7-----10-10-10------2h3p2p0---------|
d|--7-----7-7-7-----2h3p2p0-------------7------8--8--8--------------3-5-----|
a|--5-----5-5-5-------------3-5-----3---5--------------3~~--------------3-5-|
D|----3~~-------5~~-------------3-5-------0~~-------------------------------|

[tech1] (0:52-1:03)
e|--------------------------------|
b|--------------------------------|
g|--3-\-5---3-----3-\-5-----3-----|
d|--X-\-X---X-----X-\-X-----X-----|  X4
a|--1-\-3---1-----1-\-3-----1-----|
D|-------------0---------0-----0--|

[tech2] (1:04-1:24)
e|-----------------------------------------------------------------|
b|--11-----11-----11------11------11------11--------11-------------|
g|--14-----14-----14------14------14------14--------14-------------|
d|-----000----000-----000-----000-----000------000-----000--12p10--|  X2
a|-----000----000-----000-----000-----000------000-----000---------|
D|-----000----000-----000-----000-----000------000-----000---------|

e|--------------------------------------------------------------|
b|--------------------------------------------------------------|
g|--------------------------------------------------------------|
d|--0-0-0--0-0-0--0-0-0--0-0-0-0-0--0-0-0--0-0-0--0-0-0--12p10--|  X2
a|--0-0-0--0-0-0--0-0-0--0-0-0-0-0--0-0-0--0-0-0--0-0-0---------|
D|--0-0-0--0-0-0--0-0-0--0-0-0-0-0--0-0-0--0-0-0--0-0-0---------|
    . . .  . . .  . . .  . . . . .  . . .  . . .  . . .

[prechorus] (1:25-1:37)
e|-------------------------------------------------------------------|
b|-------------------------------------------------------------------|
g|-------------------------------------------------------------------|
d|-------------------------------------------------------------------|
a|-------------------------------------------------------------------|
D|--8h10-10-10--0h5~~----3h7-7-7--0~~----8h10-10-10--0h5~~----3h7~~--|

[chorus] (1:38-2:04)
e|-------------------------------------||
b|-------------------------------------||
g|--15-------14-------10-------9-------||
d|---X-(x8)---X-(x8)---X-(x8)--X-(x8)--||  X3
a|--13-------12--------8-------7-------||
D|-------------------------------------||

e|-------------------------------------||
b|-------------------------------------||
g|--15-------14-------10-------8-------||
d|---X-(x8)---X-(x8)---X-(x8)--X-(x8)--||
a|--13-------12--------8-------6-------||
D|-------------------------------------||

[dirty southern riff] (2:05-2:17)
e|--------------------------------------------------------------------------|
b|--------------------------------------------10-10-10----------------------|
g|--7-----7-7-7-------------------------7-----10-10-10------2h3p2p0---------|
d|--7-----7-7-7-----2h3p2p0-------------7------8--8--8--------------3-5-----|
a|--5-----5-5-5-------------3-5-----3---5--------------3~~--------------3-5-|
D|----3~~-------5~~-------------3-5-------0~~-------------------------------|

[tech1] (2:18-2:29)
e|--------------------------------||
b|--------------------------------||
g|--3-\-5---3-----3-\-5-----3-----||
d|--X-\-X---X-----X-\-X-----X-----||  X4
a|--1-\-3---1-----1-\-3-----1-----||
D|-------------0---------0-----0--||

[prechorus] (2:30-2:43)
e|--------------------------------------------------------------------------|
b|--------------------------------------------------------------------------|
g|--------------------------------------------------------------------------|
d|--------------------------------------------------------------------------|
a|--------------------------------------------------------------------------|
D|--8h10-10-10--0h5~~----3h7-7-7--0~~----8h10-10-10--0h5~~----3h7-7-7--0~~--|

[tech3] (2:44-3:08)
this part I'm not 100% on because it was hard to decipher what he is playing with the delay
e|--------------------------------------------------------------|
b|-----------------------10---------------------------------10--|
g|--------12-12-12-----------12-12-12--------12-12-12-----------|
d|--8-8-8----------8-8-8---------------8-8-8----------8-8-8-----|____
a|--------------------------------------------------------------|    |
D|--------------------------------------------------------------|    |
                                                                     | X4
e|--------------------------------8---------------------------|      |
b|------------------------------------------------------------|______| 
g|--12-12-12-------10-10-10----------------10-10-10-12-12-12--|
d|-----------8-8-8----------8-8-8---8-8-8---------------------|  
a|------------------------------------------------------------|
D|------------------------------------------------------------|

[chorus] (3:09-3:34)
e|-------------------------------------||
b|-------------------------------------||
g|--15-------14-------10-------9-------||
d|---X-(x8)---X-(x8)---X-(x8)--X-(x8)--||  X3
a|--13-------12--------8-------7-------||
D|-------------------------------------||

e|-------------------------------------||
b|-------------------------------------||
g|--15-------14-------10-------8-------||
d|---X-(x8)---X-(x8)---X-(x8)--X-(x8)--||
a|--13-------12--------8-------6-------||
D|-------------------------------------||

[tech2] (3:35-3:57)
e|-----------------------------------------------------------------|
b|--11-----11-----11------11------11------11--------11-------------|
g|--14-----14-----14------14------14------14--------14-------------|
d|-----000----000-----000-----000-----000------000-----000--12p10--|  X2
a|-----000----000-----000-----000-----000------000-----000---------|
D|-----000----000-----000-----000-----000------000-----000---------|

e|--------------------------------------------------------------|
b|--------------------------------------------------------------|
g|--------------------------------------------------------------|
d|--0-0-0--0-0-0--0-0-0--0-0-0-0-0--0-0-0--0-0-0--0-0-0--12p10--|  X2
a|--0-0-0--0-0-0--0-0-0--0-0-0-0-0--0-0-0--0-0-0--0-0-0---------|
D|--0-0-0--0-0-0--0-0-0--0-0-0-0-0--0-0-0--0-0-0--0-0-0---------|
    . . .  . . .  . . .  . . . . .  . . .  . . .  . . .

  Song structure:
      [intro]
[dirty southern riff]
      [tech1]
      [tech2]
    [prechorus]
     [chorus]
[dirty southern riff]
      [tech1]
    [prechorus]
      [tech3]
      [chorus]
      [tech2]

Lyrics:
Rest I have not found
They keep coming, keep coming, keep crawling right through my teeth
They keep coming, keep coming, your children I feed off to keep awake
Long enough to meet the next little sheep
Long enough to meet the next to buy every word I preach
Its like I was born to rip the flesh from her bones
Forever stalking streets for the next one
Ive found I can run faster, faster than guilt could ever
Ive found once a man lets virtue aside, he finds sweet what follows
Ive found that I can run faster than guilt could ever
Im bleeding while youre leading for my enemy
How could you really think that I am worth this rescuing?
I wish you to be, I could be, the one who pleases me so much
You to be more than me because I can reach through anything
I wish you to be, I could be, the one who please me so much
You to be, more than me, my arms are reaching
Youre reaching out to a dog thats tasted and turned
Why? Why waste your time when Ive found my strength in another?
Can you see more in me? Can you really see more than just a beast?
Im bleeding so you can be the one who pleases me
Im sorry, but I just cant justify this rescuing
You cant see fairness as your clarity
The better man is what your heart wants to be,
but you rape every trusted chance I bring your way
If justice you seek, in death it should be
I wish you to be, I could be, the one who pleases me so much
You could be more than me because I can reach through anything
I want you to be, to believe, the one who pleases me
Will you? You could be, take me my arms are reaching
I dont want to be the father who has to watch his daughter
Be conned and stripped bare by a monster like me
God, put me to sleep





Comments


Popular Oh Sleeper tabs & chords
Reveries Of Flight Bass Tabs
Heavy Hands Chords
Charlatan's Host Tabs
Means To Believe Tabs
Means To Believe Intro Tabs
Reveries Of Flight 1 Tabs
The Fire Dawn Tabs
The Marriage Of Steel And Skin Tabs
Vices Like Vipers 1 Tabs
We Are The Archers 3 Tabs


Song lyrics



↑ Back to top | Tablatures and chords are parodies/interpretations of the original songs. You may use it for private study, scholarship, research or language learning purposes only
© 2014 AZChords.com Contact us | Privacy policy | DMCA | Add/correct tabs | Request tabs | Top 50 tabs