» » »

Oh Sleeper, Dealers Of Fame Tabs (ver.1)

Artists:  A B C D E F G H I J K L M N O P Q R S T U V W X Y Z # 

Dealers Of Fame Tabs (ver.1)

Oh Sleeper Tabs
 Rating:
4/5 (5 votes)
Dealers Of Fame lessons Tabs too difficult? Try these video lessons and learn fast
                Drop C

This isn't perfect, But it is what i thought it sounded like, So enjoy.

Verse

C-00-00-00---------00-00--1--------------------33--1--------------------|
G-00-00-00---------00-00-5---------------------33-5--578----------------|
C-00-00-00------88-00-00----------88----101077-33-------578-------------|
F-------------77----------------77--1212-------------------578---7----6-|
A---------1010--------------1010------------------------------10--------|
D------------------------------------------------------------------10---|

2nd Part - Verse

C-0-----------0----------8-12-10-3---5-10-8--12-10-3---5-10-0-|-8 <--- Instead of 0-|
G-0--874---4--0--874---4--------------------------------------|---------------------|
C-0-----------0-----------------------------------------------|---------------------|
F--------7-----------7----------------------------------------|---------------------|
--------------------------------------------------------------|---------------------|
D-------------------------------------------------------------|---------------------|

Pre-Chorus

C-8--8-8-8--0-8--8-8-8--3-8--8-8-8--0-8--8-8-8--3-5--5-5-5--0-5--5-5-5-3-5--5-5-5--0-5--5-5-5-3--|
G-8--8-8-8--0-8--8-8-8--3-8--8-8-8--0-8--8-8-8--3-5--5-5-5--0-5--5-5-5-3-5--5-5-5--0-5--5-5-5-3--|
C-8--8-8-8--0-8--8-8-8--3-8--8-8-8--0-8--8-8-8--3-5--5-5-5--0-5--5-5-5-3-5--5-5-5--0-5--5-5-5-3--|
F------------------------------------------------------------------------------------------------|
A------------------------------------------------------------------------------------------------|
D------------------------------------------------------------------------------------------------|

Chorus

C-5---5---5---5---3---3---3---3-|-1-1-1-----|
G-5---5---5---5---3---3---3---3-|-1-1-1 <---| Last Time Only
C-5---5---5---5---3---3---3---3-|-1-1-1-----|
F-------------------------------------------|
A-------------------------------------------|
D-------------------------------------------|

C-00-00-00---------00-00--1--------------------33--1------------------------------|
G-00-00-00---------00-00-5---------------------33-5--578--------------------------|
C-00-00-00------88-00-00----------88----101077-33-------578-----------------------|
F-------------77----------------77--1212-------------------578----7----6----7---6-|
A---------1010--------------1010-------------------------------10--------10-------|
D-------------------------------------------------------------------10-------10---|

Breakdown

C-0-0-00-0-00-00-0-0-00-0-00-00-0-0-00-0-00-00-0-0----------|
G-0-0-00-0-00-00-0-0-00-0-00-00-0-0-00-0-00-00-0-0----------|
C-0-0-00-0-00-00-0-0-00-0-00-00-0-0-00-0-00-00-0-0-------88-|
F-----------------------------------------------------77----|
A-----------------------------------------------------------|
D-----------------------------------------------------------|

Ending

C-00-00-00---------00-00--1--------------------33--1---------------------0-|
G-00-00-00---------00-00-5---------------------33-5--578-----------------0-|
C-00-00-00------88-00-00----------88----101077-33-------578--------------0-|
F-------------77----------------77--1212-------------------578---7----6----|
A---------1010--------------1010------------------------------10-----------|
D------------------------------------------------------------------10------|
            
Submit corrections

comments powered by Disqus
↑ Back to top | Oh Sleeper Tabs for Dealers Of Fame. Lyrics for acoustic guitar and electric guitar. Tablatures and chords are parodies/interpretations of the original songs. You may use it for private study, scholarship, research or language learning purposes only