>
 >
Charlatan's Host

Charlatan's Host Guitar Tabs

Oh Sleeper - Charlatan's Host chords, tabs, tablatures, lyrics

Guitar lessons | Add/correct | Request | Top 50 tabs Artists:  A B C D E F G H I J K L M N O P Q R S T U V W X Y Z 0-9

Charlatan's Host Guitar Tabs – Oh Sleeper

CD, Sheet music, Poster

Do you like Charlatan's Host? Share with your friends now
Tabs
Alright, Charlatan's Host!  The parts with asteriks (*) before them are the parts that
not completely sure about.  Feel free to experiment and/or suggest corrections should you
inclined to.

2-16-09-Just fixed something small in the first riff.  Fine!

| /  slide up
| \  slide down
| h  hammer-on
| p  pull-off
| ~  vibrato
| +  harmonic
| x  Mute note
| .  Palm mute

RIFF 1

Both guitars

d|-----------------------------------|
A|-----------------------------------|
F|-----------------------------------|
C|----1-1---1-------3-----7----------|x3
G|----5-5---5------------------------|
C|-00-----0---0h1/2---2/3---7/2-3p0--|
   ..     .
*
d|---------------------------------------|
A|----------------------------------12---|
F|---------------------9-----12----------|
C|-----8--8----8-0-0h7---7/8----8-8----9-|
G|----12-12---12-------------------------|
C|-00-------0----------------------------|
   ..       .

Repeat RIFF 1

RIFF 2

Guitar 1

d|----------------------------------------------------xxxx--|
A|------11\10-------11\10---------11\10-------11\10---xxxx--|
F|---14----------14------------14----------14---------xxxx--|
C|-0-----------0-----------0-0-----------0------------xxxx--|x2
G|-0-----------0-----------0-0-----------0------------xxxx--|
C|-0-----------0-----------0-0-----------0------------xxxx--|

At the end, use only one finger to mute all the strings.  Somehow it gives
it a metal "chink" kind of sound.

Guitar 2

d|--------------------------------------------------------------------|
A|-11----11\10-11----11\10-11-11----11\10--11----11\10---11-11-11-11--|
F|-14--14------14--14------14-14--14-------14--14--------14-14-14-14--|
C|--------------------------------------------------------------------|x2
G|--------------------------------------------------------------------|
C|--------------------------------------------------------------------|

At the end of the second verse, both guitars stop playing before the
last part... which you can probably tell by listening.

Repeat RIFF 1


RIFF 3

Guitar 1

d|------------------------------------------------|
A|------------------------------------------------|
F|---12-12-12--7--7--7--7---10-10-10--8--8--8--8--|
C|----x--x--x--x--x--x--x----x--x--x--x--x--x--x--|x3
G|---10-10-10--5--5--5--5----8--8--8--6--6--6--6--|
C|------------------------------------------------|

Guitar 2

d|------------------------------------------------|
A|------------------------------------------------|
F|------------------------------------------------|
C|-0~---------------------------------------------|(let ring long)
G|-0~---------------------------------------------|
C|-0~---------------------------------------------|

Both guitars

d|--------------------------|
A|--------------------------|
F|--12-12-12-12-12-12-12b---|
C|---x--x--x--x--x--x--x----|
G|--10-10-10-10-10-10-10b---|
C|--------------------------|

You can bend progressively here, so it gives more build-up, if you like.

RIFF 4

Guitar 1

d|---------------------------------|
A|----11b--------------------------|
F|----14-------10-10-xx-8--8--8--8-|
C|--0-----0-0---x--x-xx-x--x--x--x-|x3
G|--0-----0-0---8--8-xx-6--6--6--6-|
C|--0-----0-0----------------------|

Guitar 2

d|----------------------------------|
A|----11b------11-11-xx-11-11-11-11-|
F|----14-------14-14-xx-14-14-14-14-|
C|--0-----0-0-----------------------|x3
G|--0-----0-0-----------------------|
C|--0-----0-0-----------------------|

Both Guitars

d|---------------------------------|
A|---------------------------------|
F|---------------------------------|
C|-------------------------5-------|
G|--5-5-------3-3------------5---3-|
C|------3-3-3-----2~-0-0h3-----3---|

Repeat RIFF 4 EXCEPT...

... on the second phrase play...

Guitar 1

d|---------------------------------|
A|----11b--------------------------|
F|----14-------10-10-xx-8--8-------|
C|--0-----0-0---x--x-xx-x--x-------|x3
G|--0-----0-0---8--8-xx-6--6-------|
C|--0-----0-0-----------------0-0--|
                              . .

Guitar 2

d|----------------------------------|
A|----11b------11-11-xx-11-11-------|
F|----14-------14-14-xx-14-14-------|
C|--0-----0-0-----------------------|x3
G|--0-----0-0-----------------------|
C|--0-----0-0------------------0-0--|
                               . .
RIFF 5

Both guitars (*... this is confusing.  Guitar 2 might actually
end the riff the first time with a hit on to the seventh fret of the high c string,
guitar 1 does the same on the G)

d|-------------------------------------------------|
A|-------------------------------------------------|
F|------------------------------------xx-5br-------|
C|----------------------8-8-8---------xx-5br-------|
G|---5-5-----5---5----5-------8/10-5---------0h7---|
C|-1-----1-1---1---1/-5----------------------------|

d|-------------------------------------------------|
A|-------------------------------------------------|
F|-----------------------------------xx-5b---------|
C|---------------------8-8-8---------xx-5b---------|
G|---5-5-----5---5---5--------8/10-5---------------|
C|-1-----1-1---1---1/5-----------------------------|

Guitar 1 Repeat RIFF 5 with a few chugs and extra notes,
like this:

d|------------------------------------------------------|
A|------------------------------------------------------|
F|-----------------------------------------xx-5br-------|
C|---------------------------8-8-8---------xx-5br-------|x2
G|---5-5-5-----5-------5---5-------8/10-5---------0h7---|
C|-1-------1-1---1--00---1/5----------------------------|
                    ..

Guitar 2

d|---------------|
A|---------------|
F|---------------|
C|-1------5------|x2
G|-1-x16--5-x16--|
C|-1------5------|

Repeat RIFF 2

Bridge, Part I

Guitar 1

d|------------------------------|
A|------------------------------|
F|--19-19--17~-----15-15--14~---|
C|---x--x---x-------x--x---x----|x2
G|--17-17--15~-----13-13--12~---|
C|------------------------------|

Guitar 2

d|------------------------------|
A|------------------------------|
F|------------------------------|
C|---1--1---1~------5--5---5~---|x2 *OR...
G|---1--1---1~------5--5---5~---|
C|---1--1---1~------5--5---5~---|

...the second time play

d|------------------------------|
A|------------------------------|
F|-------------------------7~---|
C|---1--1---1~------5--5--------|
G|---1--1---1~------5--5---5~---|
C|---1--1---1~------5--5--------|

Bridge, Part II

Guitar 1

d|-------------------------------------------------|
A|-------------------------------------------------|
F|--19------17--------19------17-------------------|
C|---x--x6---x--x10----x--x6---x----------7--------|x2
G|--17------15--------17------15----8--------------|
C|--------------------------------5---5-5---3-3-3--|

Guitar 2

d|-------------------------------------------------|
A|-------------------------------------------------|
F|-------------------------------------------------|
C|---1-----------------5------------------7--------|x2
G|---1-x16-------------5--x8--------8--------------|
C|---1-----------------5----------5---5-5---3-3-3--|

Guitar 1

d|-------------------|
A|-------------------|
F|--19------17-------|
C|---x--x6---x--x10--|x3
G|--17------15-------|
C|-------------------|

d|---------------|
A|---------------|
F|---------------|
C|-1------5------|x2
G|-1-x16--5-x16--|
C|-1------5------|

FINAL BREAKDOWN Part I

Both guitars!

d|-------------------|
A|--------------11b--|
F|--------------14---|
C|-----8--8----8-----|
G|----12-12---12-----|
C|-00-------0--------|
   ..       .

Guitar 1-some sort of arpeggio sweep thing.  Its faint but its sick.
Sadly I know not how to play that, so I won't write it.

Guitar 2

d|--------------------|
A|---------------11b--|
F|---------------14---|
C|------8--8----8-----|x2
G|-----12-12---12-----|
C|--00-------0--------|
    ..       .

Both Guitars!

d|----------------------------------------|
A|-----------------------------------12---|
F|----------------------9-----12----------|
C|------8--8----8-0-0h7---7/8----8-8----9-|
G|-----12-12---12-------------------------|
C|--00-------0----------------------------|
    ..       .

FINAL BREAKDOWN part II

Both Guitars

d|------------------x------------------|
A|------------------x------------------|
F|------------------x------------------|
C|------------------x------------------|
G|------------------x------------------|
C|--0--00--0--00--0-x-0--00--0--00--0--|
                  .

Guitar 1-More crazy stuff that I'm not quite skilled enough to do.

Guitar 2

d|-------------------|
A|-------------------|
F|-------------------|
C|-------------------|x4
G|-------------------|
C|--0--00--0--00--0--|


FINAL BREAKDOWN Part III

Both Guitars

d|------------------x---------------x---------|
A|------------------x---------------x---------|
F|------------------x---------------x---------|
C|--0--00--0--00----x-0--00--0--00--x---------|
G|--0--00--0--00----x-0--00--0--00--x--5-5-5--|
C|--0--00--0--00--0-x-0--00--0--00--x--5-5-5--|
                  .                    . . .

d|------------------x---------------x---------x--------|
A|------------------x---------------x---------x--------|
F|------------------x---------------x---------x--------|
C|--0--00--0--00----x-0--00--0--00--x---------x--------|
G|--0--00--0--00----x-0--00--0--00--x--5-5-5--x--5-5-5-|
C|--0--00--0--00--0-x-0--00--0--00--x--5-5-5--x--5-5-5-|
                  .                    . . .     . . .

Same thing as early with the muting.  Use only one finger.

OUTRO

Both guitars

d|-------------------------|
A|-------------------------|
F|-------------------------|
C|--0~---------0~----------|
G|--0~---------0~----------|
C|--0~---------0~----------|

Guitar 1 * (I don't know exactly the chord but this sounds pretty good.  Also, try 
the pick slowly across, d string down)

d|------------------------6~---------6~---------6----------6~---------6~--|
A|-----------------------10~--------10~--------10---------10~--------10~--|
F|------------------------9~---------9~---------9----------9~---------9~--|
C|--1~---------1~---------x----------x----------x----------x----------x---|
G|--5~---------5~---------8~---------8~---------8----------8~---------8~--|
C|------------------------------------------------------------------------|

Guitar 2

d|------------------------------------------------------------------------|
A|------------------------------------------------------------------------|
F|------------------------------------------------------------------------|
C|--0----------0----------0----------0----------0----------0----------0---|
G|--0----------0----------0----------0----------0----------0----------0---|
C|--0----------0----------0----------0----------0----------0----------0---|

Alright, once I learn how to do arpeggios etc. I will post an updated version.  ALSO, I am
working on a Vices like Vipers tab, so watch out for it.

Have fun.





Comments


Popular Oh Sleeper tabs & chords
Reveries Of Flight Bass Tabs
Building The Nations Tabs
Dealers Of Fame Tabs
In The Wake Of Pigs Tabs
The Finisher 3 Tabs
The Marriage Of Steel And Skin Tabs
We Are The Archers Tabs
We Are The Archurs Intro Tabs
World Without A Sun Intro Tabs
Reveries Of Flight Ukulele


Song lyrics



↑ Back to top | Tablatures and chords are parodies/interpretations of the original songs. You may use it for private study, scholarship, research or language learning purposes only
© 2014 AZChords.com Contact us | Privacy policy | DMCA | Add/correct tabs | Request tabs | Top 50 tabs