» » »

Oh No Oh My, Walk In The Park Bass tabs (ver.1)

Artists:  A B C D E F G H I J K L M N O P Q R S T U V W X Y Z # 

Walk In The Park Bass tabs (ver.1)

Oh No Oh My Tabs
 Rating:
4/5 (4 votes)
Walk In The Park lessons Tabs too difficult? Try these video lessons and learn fast
                Verse:

Bass starts at the second time.

 A#               Fm               D#               D#
|----------------|----------------|----------------|----------------|
|----------------|----------------|----------------|----------------|
|----------------|----------------|----------------|----------------|
|----------------|----------------|------------6---|------------6---|
|----------------|----------------|6-------6-8---8-|6-------6-8---8-|
|6---6-----------|1---1-----------|----------------|----------------|
                                                   
play 3 times


Chorus (bababa-part):

no bass

only in case you get bored:

 A#               Dm               F                D#
|----------------|----------------|----------------|----------------|
|----------------|----------------|----------------|----------------|
|----------------|----------------|----------------|----------------|
|----------------|----------------|----------------|----------------|
|----------------|5---------------|8---------------|6---------------|
|6---------------|----------------|----------------|----------------|


Verse:

play 3 times



Chorus:
no bass


Bridge:

Please don't ask me all those questions...

 E#                                C#
|----------------|----------------|----------------|----------------|
|----------------|----------------|----------------|----------------|
|----------------|----------------|----------------|----------------|
|----------------|----------------|----------------|----------------|
|----------------|----------------|6---6---6---6---|6---6---6---6---|
|1---1---1---1---|1---1---1---1---|----------------|----------------|

2times
then

 A#               C                G                C
|----------------|----------------|----------------|----------------|
|----------------|----------------|----------------|----------------|
|----------------|----------------|----------------|----------------|
|----------------|----------------|----------------|----------------|
|1---1---1---1---|3---3---3---3---|----------------|3~--------------|
|----------------|----------------|3---3---3---3---|----------------|


it's coming... the verse again
3 times

Chorus

end on A#





Nice day for a walk in the park.
Nice day for a drive through the city.
This world is a warm, sunny park.

Nice day for a talk with your girl.
Nice day for your shop to get busy.
This world is of no empty part.

Please don't ask me all those questions I don't know.
Please don't ask me all those questions I don't know.

And when you wake up early and the sun is shining,
are you ready for a day that's comin'?
It's comin'.

Nice day for a walk in the dark.
Nice day for a drive-by shooting.
This world has a warm, sunny heart.

Yeah.	
            
Submit corrections

comments powered by Disqus
↑ Back to top | Oh No Oh My Bass for Walk In The Park. Lyrics for acoustic guitar and electric guitar. Tablatures and chords are parodies/interpretations of the original songs. You may use it for private study, scholarship, research or language learning purposes only