» » »

Of The Wand And The Moon, Lucifer Tabs (ver.1)

Artists:  A B C D E F G H I J K L M N O P Q R S T U V W X Y Z # 

Lucifer Tabs (ver.1)

Of The Wand And The Moon Tabs
Rating:
5/5 (2 votes)
Lucifer lessons Tabs too difficult? Try these video lessons and learn fast
                There are two riffs in this song. Just play them alternatively as many times as it's needed.

Riff1
              ^    ^  ^ v ^    ^  v ^    ^    ^  ^ v  ^  ^ v ^ v   
              Q    E  S S Q    E  S S    Q    E  S E  E  S S S E   
D#||-------|-------0------0----0------|-------0-------0-----------|
A#||-------|--0----0------1----1--1-1-|--0----0----0--0--------0--|
F#||-------|--0----0--0-0-0----0--0-0-|--0----0--0-0--0--0-0-0-0--|
C#||-------|--2----2--2-2-2----2--2-2-|--2----2--2-2--2--2-2-2-2--|
G#||-------|--2----2--2-2-3----3--3-3-|--2----2--2-2--2--2-2-2-2--|
D#||-------|--0----0--0-0-0----0--0-0-|--0----0--0-0--0--0-0-0-0--|


Riff2
  ^    ^  ^ v ^    ^  v ^    ^    ^  ^ v  ^  ^ v ^ v    
  Q    E  S S Q    E  S S    Q    E  S E  E  S S S E    
--0-----------0-----------|-------0-------0-----------||
--3----3--3-3-1----1--1-1-|--0----0----0--0--------0--||
--2----2--2-2-0----0--0-0-|--0----0--0-0--0--0-0-0-0--||
--0----0--0-0-2----2--2-2-|--2----2--2-2--2--2-2-2-2--||
--0----0--0-0-3----3--3-3-|--2----2--2-2--2--2-2-2-2--||
--------------0----0--0-0-|--0----0--0-0--0--0-0-0-0--||




Duration Legend
---------------
Q - quarter
E - 8th
S - 16th

Tablature Legend
----------------
^ - brush up
v - brush down
            

comments powered by Disqus
↑ Back to top | Of The Wand And The Moon Tabs for Lucifer. Lyrics for acoustic guitar and electric guitar. Tablatures and chords are parodies/interpretations of the original songs. You may use it for private study, scholarship, research or language learning purposes only