» » »

Here's To Misery (A Toast) Tabs (ver.1)

Artists:  A B C D E F G H I J K L M N O P Q R S T U V W X Y Z # 

Here's To Misery (A Toast) Tabs (ver.1)

Of The Wand And The Moon
Rating:
0/5 (0 votes)

Hard to play? Try these video lessons and learn fast.
                Band/Song: Of The Wand And The Moon - Here's To Misery (A Toast)


Tuning: Standard


Repeat this riff throughout the whole song.


     v    ^   ^ v  ^   v ^ v    v    ^   ^ v  ^   v ^ v  
     Q    E.  S E  E.  S S S    Q    E.  S E  E.  S S S  
E||--------------------------|-------0--------0---------|
B||-------0--------0---------|--1----1---1-1--1---1-1-1-|
G||--0----0---0-0--0---0-0-0-|--0----0---0-0--0---0-0-0-|
D||--2----2---2-2--2---2-2-2-|--2----2---2-2--2---2-2-2-|
A||--2----2---2-2--2---2-2-2-|--3----3---3-3--3---3-3-3-|
E||--0----0---0-0--0---0-0-0-|--------------------------|


  v    ^   ^ v  ^   v ^ v    v    ^   ^ v  ^   v ^ v   
  Q    E.  S E  E.  S S S    Q    E.  S E  E.  S S S   
-------3--------3---------|-------3--------3---------||
--3----3---3-3--3---3-3-3-|--3----3---3-3--3---3-3-3-||
--0----0---0-0--0---0-0-0-|--0----0---0-0--0---0-0-0-||
--0----0---0-0--0---0-0-0-|--0----0---0-0--0---0-0-0-||
--2----2---2-2--2---2-2-2-|--2----2---2-2--2---2-2-2-||
--3----3---3-3--3---3-3-3-|--3----3---3-3--3---3-3-3-||




Duration Legend
---------------
Q - quarter
E - 8th
S - 16th
. - note dotted


Tablature Legend
----------------
^ - brush up
v - brush down
            
Hard to play? Try these video lessons and learn fast. | Correct




comments powered by Disqus
↑ Back to top | Tablatures and chords are parodies/interpretations of the original songs. You may use it for private study, scholarship, research or language learning purposes only