>
 >
Wraith Pinned To The Mist And Other Games

Wraith Pinned To The Mist And Other Games Bass Tabs

Of Montreal - Wraith Pinned To The Mist And Other Games chords, tabs, tablatures, lyrics

Guitar lessons | Add/correct | Request | Top 50 tabs Artists:  A B C D E F G H I J K L M N O P Q R S T U V W X Y Z 0-9

Wraith Pinned To The Mist And Other Games Bass Tabs – Of Montreal

CD, Sheet music, Poster

Do you like Wraith Pinned To The Mist And Other Games? Share with your friends now
Bass TabsBass Tabs v2Bass Tabs v3ChordsChords v2Chords v3Ukulele
Album:the Sunlandic Twins


Main Part:
G|---------------------------------------------------------------------|
D|--------------5-8-------------------------------------5-5-6-6-7-7----|
A|------5-5-8-8---------5-5-6-6-8-8-----0-0-3-3-5-5-8-8----------------|
E|--6-6-------------6-6-------------1-1--------------------------------|

Main Part w/ Fill: (not sure about the thing at the end)                                   
G|-----------------------------------------------------------3---------|
D|--------------5-8-------------------------------------0-0-3-3-0------|
A|------5-5-8-8---------5-5-6-6-8-8-----0-0-3-3-5-5-1-1-----------3----|
E|--6-6-------------6-6-------------1-1--------------------------------|

Verse:
G|----3---3---3---3---5---5---5---5---10---10---10---10---3---3---3---3----|
D|-------------------------------------------------------------------------|
A|--1---1---1---1---3---3---3---3---8----8----8----8----1---1---1---1------|
E|-------------------------------------------------------------------------|

Verse Continued:
G|-----13----13----13----13---5---5---5---5---3---3---3---3---10---10---10-|
D|-------------------------------------------------------------------------|
A|--11----11----11----11----3---3---3---3---1---1---1---1---8----8----8----|
E|-------------------------------------------------------------------------|

|---10---10---10---10---9----|
|----------------------------|
|-8----8----8----8----7------|
|----------------------------|



Main Part But Shorter:
G|----------------------------------------------------------|
D|--------------5-8----------------------------------------|
A|------5-5-8-8---------5-5-6-6-8-8-----0-0-3-3-5-5--------|
E|--6-6-------------6-6-------------1-1-------------6-6----|


heres the order

Main Part x3
Main Part w/ Fill x1
Verse x1
Main Part x1
Main Part x Fill x1
Verse x1
Main Part x1
Main Part But Shorter x1
Then without bass "maybe ill never die...."
Then Main Part until fade





Comments


Popular Of Montreal tabs & chords
We Were Born The Mutants Again With Leafling Bass Tabs
Enemy Gene 1 Chords
Ghetto World Chords
Hegira Emigre Chords
Jaques Lamure Chords
Sing You A Love You Song Tabs
Wicked Wisdom Tabs
Will You Come And Fetch Me? Tabs
Womens Studies Victims Tabs
The Secret Ocean Ukulele


Song lyrics



↑ Back to top | Tablatures and chords are parodies/interpretations of the original songs. You may use it for private study, scholarship, research or language learning purposes only
© 2014 AZChords.com Contact us | Privacy policy | DMCA | Add/correct tabs | Request tabs | Top 50 tabs