» » »

Of Montreal, Will You Come And Fetch Me? Tabs (ver.1)

Artists:  A B C D E F G H I J K L M N O P Q R S T U V W X Y Z # 

Will You Come And Fetch Me? Tabs (ver.1)

Of Montreal Tabs
Rating:
0/5 (0 votes)
Will You Come And Fetch Me? lessons Tabs too difficult? Try these video lessons and learn fast
                Tuning: standard

Intro: 

Basic chords: E - A - E - A
End of verse/prechorus: F#m - B - C#m - (D#m) - C#m
Chorus: F#m - F#m/C# - A - F#m - F#m/C#

One way to play intro thing:
    E        A
e|------7--------------------------------------------------------------------|
B|------9--------------------------------------------------------------------|
G|------9--------------------------------------------------------------------|
D|------9--------------------------------------------------------------------|
A|----7----7-0-6-0-4---------------------------------------------------------|
E|--0---(0)------------------------------------------------------------------|
    	     

And another way:
     E        A
e|-------7--------9-----------------------------------------------------------|
B|-------9--------10\---------------------------------------------------------|
G|-------9--------9-----------------------------------------------------------|
D|-------9--------11\---------------------------------------------------------|
A|-----7----7-0-6-0-----------------------------------------------------------|
E|---0------------------------------------------------------------------------|
              

Verse: play one of the two intros (or both at the same time), then do this:
     F#m    B		 C#m                 ~C#m          C#m  D#m  C#m
e|---2------7------------0----------------------------------------------------|
B|---2------7------------5---------------------------------5----7----5--------|
G|---2------8------------6--------------------9------------x----8----6--------|
D|---4------9------------6--------------------x------------6----x----x--------|
A|---4------9------------4--------------------7------------4----6----4--------|
E|---2--/---7---------------------------------9-------------------------------|
"Wonderful surprise.     Will you come and fetch me girl, from the brink"

Little fill before chorus:
e|-4h5-4-2-1--------------2-0-----------2-0----------------------------------|
B|-----------2------0---0-----0-------0-----0--------------------------------|
G|-------------1------0---------0---0---------0------------------------------|
D|---------------------------------------------------------------------------|
A|---------------------------------------------------------------------------|
E|---------------------------------------------------------------------------|
		  I'm starting to kink, and I'm too numb to think if this

Chorus:
        
e|------2------------------2------------5-------2----------------------------------|
B|------2------------------2------------5-------2----------------------------------|
G|------2------------------2------------6-------2----------------------------------|
D|------4------------------4------------7-------4--------11------------------------|
A|------4-----------------/4------------7-------4--------x-------------------------|
E|------2-------------------------------5-------2-------/9-------------------------|
If this nightmare can't be stopped,  Go out and find me when I'm dropped        


| /  slide up
| \  slide down
| h  hammer-on
| p  pull-off
| ~  vibrato
| +  harmonic
| x  Mute note
            

comments powered by Disqus
↑ Back to top | Of Montreal Tabs for Will You Come And Fetch Me?. Lyrics for acoustic guitar and electric guitar. Tablatures and chords are parodies/interpretations of the original songs. You may use it for private study, scholarship, research or language learning purposes only