>
 >
We Were Born The Mutants Again With Leafling

We Were Born The Mutants Again With Leafling Bass Tabs

Of Montreal - We Were Born The Mutants Again With Leafling chords, tabs, tablatures, lyrics

Guitar lessons | Add/correct | Request | Top 50 tabs Artists:  A B C D E F G H I J K L M N O P Q R S T U V W X Y Z 0-9

We Were Born The Mutants Again With Leafling Bass Tabs – Of Montreal

CD, Sheet music, Poster

Do you like We Were Born The Mutants Again With Leafling? Share with your friends now
Bass TabsChordsUkulele
-------------------------------------------------------------------------------
        We Were Born the Mutants Again With Leafling - Of Montreal
-------------------------------------------------------------------------------

a basstab from of montreals upcoming album
pretty simple and easy to play 

Tuning:standard


Part 1 
        
G|-----1010-----| 
D|-1212----12\--| 2 variations to the very first part
A|--------------| 
E|--------------|
        ***
G|-----1010-12\-|---------------1010-77----77--------101010------------------|
D|-1212---------|--77-1010-77-----------10---1010-88-------------------------|
A|--------------|88----------88----------------------------------------------|
E|--------------|------------------------------------------------------------|
             
G|-----101010----------------------------------------------------------------|
D|--88-------------88-10-12--------------------------------------------------|
A|-------------1010----------------------------------------------------------|
E|---------------------------------------------------------------------------|


Part 2 (lead in)

G|-----------------
D|-----8-10--------
A|--10-------------
E|-----------------


Part 3

G|-----10\9---------------1010-99-77------77----12\---77-1010----------------|
D|-1212----10---77-1010--------------77-88--1010----88-------88-----8-10-----|
A|------------88-------88---------------------------------------1010---------|
E|---------------------------------------------------------------------------|


Order
Part 1 x 8
Part 3 x 2
break..
Part 2
Part 3
Part 1 


| /  slide up
| \  slide down
| h  hammer-on
| p  pull-off
| ~  vibrato
| +  harmonic
| x  Mute note
===============================================================================  





Comments


Popular Of Montreal tabs & chords
Amphibian Days Chords
Fun Loving Nun Chords
Ghetto World Chords
Gronlandic Edit Chords
My British Tour Diary Chords
My Favorite Boxer Chords
Our Love Is Senile Chords
Plastis Wafer Tabs
St. Exquisite's Confessions Tabs
Fun Loving Nun Ukulele


Song lyrics



↑ Back to top | Tablatures and chords are parodies/interpretations of the original songs. You may use it for private study, scholarship, research or language learning purposes only
© 2014 AZChords.com Contact us | Privacy policy | DMCA | Add/correct tabs | Request tabs | Top 50 tabs