» » »

Of Montreal, This Feeling Dereks Chords (ver.1)

Artists:  A B C D E F G H I J K L M N O P Q R S T U V W X Y Z # 

This Feeling Dereks Chords (ver.1)

Of Montreal Tabs
 Rating:
4/5 (4 votes)
This Feeling Dereks lessons Tabs too difficult? Try these video lessons and learn fast
1
                (Theme)
This Feeling (Derek's Theme)
of Montreal
Cherry Peel

Standard Tuning

Intro (2x):

        A#         Cm        G#         A#            Riff
|--6-6-6-6-6-6--8--8--8---4-4-4-4--6-6-6-6-6-6---------------------|
|--6-6-6-6-6-6--8--8--8---4-4-4-4--6-6-6-6-6-6---------------------|
|--7-7-7-7-7-7--8--8--8---5-5-5-5--7-7-7-7-7-7---------------------|
|--8-8-8-8-8-8--10-10-10--6-6-6-6--8-8-8-8-8-8---------------------|
|--8-8-8-8-8-8--10-10-10--6-6-6-6--8-8-8-8-8-8---------------------|
|--6-6-6-6-6-6--8--8--8---4-4-4-4--6-6-6-6-6-6--11-10-11-10-3-3-6--|

Verse 1:

A#               Cm         G#              A#        Riff
I'm so excited I just can't wait for you to come

        A#             A#/A                   D#         D#m     Dm
|--6-6-6-6-6-6---------------------------6-6-6-6-6-6--6-6-6-6-6--5-5--|
|--6-6-6-6-6-6------6-6-6-6-6-6----------8-8-8-8-8-8--7-7-7-7-7--6-6--|
|--7-7-7-7-7-7------7-7-7-7-7-7----------8-8-8-8-8-8--8-8-8-8-8--7-7--|
|--8-8-8-8-8-8------8-8-8-8-8-8----------8-8-8-8-8-8--8-8-8-8-8--7-7--|
|--8-8-8-8-8-8------5-5-5-5-5-5----------6-6-6-6-6-6--6-6-6-6-6--5-5--|
|--6-6-6-6-6-6------5-5-5-5-5-5---------------------------------------|
   I've been livin' alone and lonely far too long

        G#          C#m          F#m             B        A         G#              C#m
|--4-4-4-4-4-4-----4-4-4-4-4-4--2-2-2-2-2-2--7-7-7-7-7----5----4-4-4-4-4-4------4-4-4-4-4-4--|
|--4-4-4-4-4-4-----5-5-5-5-5-5--2-2-2-2-2-2--7-7-7-7-7----5----4-4-4-4-4-4------5-5-5-5-5-5--|
|--5-5-5-5-5-5-----6-6-6-6-6-6--2-2-2-2-2-2--8-8-8-8-8----6----5-5-5-5-5-5------6-6-6-6-6-6--|
|--6-6-6-6-6-6-----6-6-6-6-6-6--4-4-4-4-4-4--9-9-9-9-9----7----6-6-6-6-6-6------6-6-6-6-6-6--|
|--6-6-6-6-6-6-----4-4-4-4-4-4--4-4-4-4-4-4--9-9-9-9-9----7----6-6-6-6-6-6------4-4-4-4-4-4--|
|--4-4-4-4-4-4------------------2-2-2-2-2-2--7-7-7-7-7----5----4-4-4-4-4-4-------------------|
   When I see your face and the love that's in your eyes you  know I just can't place this

Chorus:

       F#m       E        B            A            B
|--2-2-2-2-2-2--7-7--7-7-7-7-7-7--5-5-5-5-5-5--7-7-7-7-7-7--|
|--2-2-2-2-2-2--9-9--7-7-7-7-7-7--5-5-5-5-5-5--7-7-7-7-7-7--|
|--2-2-2-2-2-2--9-9--8-8-8-8-8-8--6-6-6-6-6-6--8-8-8-8-8-8--|
|--4-4-4-4-4-4--9-9--9-9-9-9-9-9--7-7-7-7-7-7--9-9-9-9-9-9--|
|--4-4-4-4-4-4--7-7--9-9-9-9-9-9--7-7-7-7-7-7--9-9-9-9-9-9--|
|--2-2-2-2-2-2-------7-7-7-7-7-7--5-5-5-5-5-5--7-7-7-7-7-7--|
   feelin' this feeeelin'    this feeeeeeeeeeeelin'

Verse 2:

A#                    Cm  G#                A#       Riff
I'm so excited all my sad days will soon be over

  A#                            A#/A                  D#                      D#m Dm
I know you can do it 'cause you did it before and I'm happy when I'm with you

  G#                  C#m           F#m    B                     A   G#             C#m
I guess it's a lot to ask of you to change everything that's bad you know I have to laugh at

Chorus:

     F#m          E  B         A  B
this feeling this feeling this feeling

Bridge:

B B
  There's one thing I hesitate to add

A G#
  What if it turns out bad?

         A      G#
We'll be living together

                A                 G#   D#m       A
Will we be spending too much time together?

Verse 3:

A#                 Cm       G#              A#     Riff
I'm gonna find out just how close we really are

       A#                   A#/A              D#     D#m Dm
and if having you around is better than being alone

G#          C#m              F#m              B                    A   G#            C#m
If I had to bet whether this works or not I'm certain that it will but still I can't forget

Chorus:

     F#m          E  B         A  B
this feeling this feeling this feeling
            
Submit corrections

comments powered by Disqus
↑ Back to top | Of Montreal Chords for This Feeling Dereks. Lyrics for acoustic guitar and electric guitar. 1 Tablatures and chords are parodies/interpretations of the original songs. You may use it for private study, scholarship, research or language learning purposes only