>
 >
The Partys Crashing Us 2

The Partys Crashing Us 2 Bass Tabs

Of Montreal - The Partys Crashing Us 2 chords, tabs, tablatures, lyrics

Guitar lessons | Add/correct | Request | Top 50 tabs Artists:  A B C D E F G H I J K L M N O P Q R S T U V W X Y Z 0-9

The Partys Crashing Us 2 Bass Tabs – Of Montreal

CD, Sheet music, Poster

Do you like The Partys Crashing Us 2? Share with your friends now
Bass TabsBass Tabs v2Ukulele
Just Fixing the one already on here. 
This tab made by Fishthebassist.

  Intro
|-----------------------------------------------|
|-----------------------------------------------|
|-------------------------------8-8-8-8-8-8-8-8-|
|-3-3-3-3-3-3-3/8-8-8-8-8-8-8-8-----------------|

|-----------------------------------------------------|
|-----------------------------------------------------|
|-1-1-1-1-1-1-1-1/-8-8-8-8-8-8-8-8\-3-3-3-3-3-3-3-3-3-|
|-----------------------------------------------------|


 
|---------------101010--------------------------5-5-8\-----------------|
|-----7-7-10-10-------------------------5-5-8-8------------5-5-2-2-----|
|-8-8----------------------5-5-8-8-888-----------------3-3---------3-3-|
|----------------------6-6---------------------------------------------|

|---------------------------------------7-------7-------7-12-10-----|
|-----------------8-8-----8-8-----5-5-8---5-5-8---5-5-8---------12--|
|-----5-8-----5-8-----5-8-----5h8-----------------------------------|
|-6-6-----6-6-------------------------------------------------------|




 Verse 
|-------5---7----7-5-------------------5---7----10/12\10---17--14-|
|---4/7---7----------7-5---5-7-----4/7---7------------------------|
|-5----------------------8-------5--------------------------------|
|-----------------------------------------------------------------|

|--------5---7-----------5-----10-10-9-9-7-7-----------------------|
|---4/7----7-----3-345-7---7-5---------------10-10-8-8-7-7-5-5-----|
|-5-------------------------------------------------------------33-|
|------------------------------------------------------------------|

|-------5---7----7-5-------------------5---7----10/12\10---17--14-|
|---4/7---7----------7-5---5-7-----4/7---7------------------------|
|-5----------------------8-------5--------------------------------|
|-----------------------------------------------------------------|

|-------5---7---7-5-------5-7---10-10-9-9-7-7-----------------------|
|---4/7---7---------7-5-7---------------------10-10-8-8-7-7-5-5-----|
|-5-------------------------------------------------------------7-7-|
|-------------------------------------------------------------------|

|-------------------12-12-10-10-------10----|
|-----7-7-10-10-7-7-------------12-12---12\-|
|-8-8---------------------------------------|
|-------------------------------------------|




Chorus 
|---------5-5-777-------------555-|
|-5-5-8-8-------------2-2-5-5-----|
|-----------------3-3-------------|
|---------------------------------|

|---------------101010--------------------------5-5-8\-----------------|
|-----7-7-10-10-------------------------5-5-8-8------------5-5-2-2-----|
|-8-8----------------------5-5-8-8-888-----------------3-3---------3-3-|
|----------------------6-6---------------------------------------------|

|--------------------------------------------5-5-777-------------555-|
|-------------------------8-8--------5-5-8-8-------------2-2-5-5-----|
|-----5-8-----5-8-----5-8-----5h8--------------------3-3-------------|
|-6-6-----6-6-----6-6------------------------------------------------|
 
|---------------101010--------------------------5-5-8\-----------------|
|-----7-7-10-10-------------------------5-5-8-8------------5-5-2-2-----|
|-8-8----------------------5-5-8-8-888-----------------3-3---------3-3-|
|----------------------6-6---------------------------------------------|

|---------------------------------------7-------7-------7-12-10-----|
|-----------------8-8-----8-8-----5-5-8---5-5-8---5-5-8---------12--|
|-----5-8-----5-8-----5-8-----5h8-----------------------------------|
|-6-6-----6-6-------------------------------------------------------|

Outro
|-----------------------------------------------|
|-----------------------------------------------|
|-------------------------------8-8-8-8-8-8-8-8-|
|-3-3-3-3-3-3-3/8-8-8-8-8-8-8-8-----------------|

|-----------------------------------------------------|
|-----------------------------------------------------|
|-1-1-1-1-1-1-1-1/-8-8-8-8-8-8-8-8\-3-3-3-3-3-3-3-3-3-|
|-----------------------------------------------------|

|--------------------------------------------5-5-777-------------555-|
|-------------------------8-8--------5-5-8-8-------------2-2-5-5-----|
|-----5-8-----5-8-----5-8-----5h8--------------------3-3-------------|
|-6-6-----6-6-----6-6------------------------------------------------|

|---------------101010--------------------------5-5-8\-----------------|
|-----7-7-10-10-------------------------5-5-8-8------------5-5-2-2-----|
|-8-8----------------------5-5-8-8-888-----------------3-3---------3-3-|
|----------------------6-6---------------------------------------------|

|--------------------------------------------5-5-777-------------555-|
|-------------------------8-8--------5-5-8-8-------------2-2-5-5-----|
|-----5-8-----5-8-----5-8-----5h8--------------------3-3-------------|
|-6-6-----6-6-----6-6------------------------------------------------|
 
|---------------101010--------------------------5-5-8\-----------------|
|-----7-7-10-10-------------------------5-5-8-8------------5-5-2-2-----|
|-8-8----------------------5-5-8-8-888-----------------3-3---------3-3-|
|----------------------6-6---------------------------------------------|

|---------------------------------------7-------7-------7-12-10-----|
|-----------------8-8-----8-8-----5-5-8---5-5-8---5-5-8---------12--|
|-----5-8-----5-8-----5-8-----5h8-----------------------------------|
|-6-6-----6-6-------------------------------------------------------|


Pattern
Intro 
Verse
Chorus
Verse
Chorus
Verse
Outro





Comments


Popular Of Montreal tabs & chords
A Sentence Of Sorts In Kongsvinger Chords
Coquet Coquet Chords
Past Is A Grotesque Animal Chords
Triumph Of Disintegration Chords
Wraith Pinned To The Mist And Other Games Chords
Forecast Fascist Future Intro Tabs
No Conclusion Tabs
Past Is A Grotesque Animal 3 Tabs
The Secret Ocean Ukulele
We Were Born The Mutants Again With Leafling Ukulele


Song lyrics



↑ Back to top | Tablatures and chords are parodies/interpretations of the original songs. You may use it for private study, scholarship, research or language learning purposes only
© 2014 AZChords.com Contact us | Privacy policy | DMCA | Add/correct tabs | Request tabs | Top 50 tabs