» » »

Of Montreal, The Party's Crashing Us Bass tabs (ver.1)

Artists:  A B C D E F G H I J K L M N O P Q R S T U V W X Y Z # 

The Party's Crashing Us Bass tabs (ver.1)

Of Montreal Tabs
Rating:
0/5 (0 votes)
The Party's Crashing Us lessons Tabs too difficult? Try these video lessons and learn fast
                just fixing up the tab that was already on here


Part 1
|-----------------------------------------------|
|-----------------------------------------------|
|-------------------------------8-8-8-8-8-8-8-8-|
|-3-3-3-3-3-3-3/8-8-8-8-8-8-8-8-----------------|

|-----------------------------------------------------|
|-----------------------------------------------------|
|-1-1-1-1-1-1-1-1/-8-8-8-8-8-8-8-8\-3-3-3-3-3-3-3-3-3-|
|-----------------------------------------------------|

Part 2
|--------------------------------------------5-5-777-------------555-|
|-------------------------8-8--------5-5-8-8-------------2-2-5-5-----|
|-----558-----558-----558-----5h8--------------------3-3-------------|
|-6-6--*--6-6--*--6-6--*---------------------------------------------|
 *grace
|---------------101010--------------------------5-5-8\-----------------|
|-----7-7-10-10-------------------------5-5-8-8------------5-5-2-2-----|
|-8-8----------------------5-5-8-8-888-----------------3-3---------3-3-|
|----------------------6-6---------------------------------------------|

|---------------------------------------7-------7-------7-12-10-----|
|-----------------8-8-----8-8-----5-5-8---5-5-8---5-5-8---------12--|
|-----5-8-----5-8-----5-8-----5h8-----------------------------------|
|-6-6-----6-6-------------------------------------------------------|


Part 3
|-------5---7----7-5-------------------5---7----10/12\10---17--14-|
|---4/7---7----------7-5---5-7-----4/7---7------------------------|
|-5----------------------8-------5--------------------------------|
|-----------------------------------------------------------------|

|--------5---7-----------5-----10-10-9-9-7-7-----------------------|
|---4/7----7-----3-345-7---7-5---------------10-10-8-8-7-7-5-5-----|
|-5-------------------------------------------------------------33-|
|------------------------------------------------------------------|

|-------5---7----7-5-------------------5---7----10/12\10---17--14-|
|---4/7---7----------7-5---5-7-----4/7---7------------------------|
|-5----------------------8-------5--------------------------------|
|-----------------------------------------------------------------|

|-------5---7---7-5-------(5-7)-10-10-9-9-7-7-----------------------|
|---4/7---7---------7-5-7---------------------10-10-8-8-7-7-5-5-----|
|-5-------------------------------------------------------------7-7-|
|-------------------------------------------------------------------|

|-------------------12-12-10-10-------10----|
|-----7-7-10-10-7-7-------------12-12---12\-|
|-8-8---------------------------------------|
|-------------------------------------------|
            
Submit corrections

comments powered by Disqus
↑ Back to top | Of Montreal Bass for The Party's Crashing Us. Lyrics for acoustic guitar and electric guitar. Tablatures and chords are parodies/interpretations of the original songs. You may use it for private study, scholarship, research or language learning purposes only