» » »

Suffer For Fashion Tabs (ver.1)

Artists:  A B C D E F G H I J K L M N O P Q R S T U V W X Y Z # 

Suffer For Fashion Tabs (ver.1)

Of Montreal
Rating:
0/5 (0 votes)

Hard to play? Try these video lessons and learn fast.
                Suffer for Fashion


B       Emaj7/G#  F#6/A#


B
We just want to emote until we're dead
                                    A
I know we suffer for fashion or whatever
B
We don't want these days to ever end
                                   A
We just want to emasculate them forever

   D    G6
Forever
   D    G6
Forever
       G               D
Pretty sirens don't go flat
            A                    G
It's not supposed to happen like that
         Em     D
Not like that
         G
Not like that
             A
We've got to keep it physical

B              
When our tellies are six hours away
                                                     A
Please call to say that you miss me, feel me, or whatever
B                           
Vicissitudes are boxing our heads
                                        A
Like they just want to emaciate them forever

   D    G6
Forever
   D    G6
Forever
       G               A
Pretty sirens don't go flat
                                 G
It's not supposed to happen like that
         Em     D
Not like that
         G
Not like that


B                            Gm              D    
We've got to keep our little clique clicking at 130 BPM
            G
It's not too slow
         Em                             D
If we've got to burn out, let's do it together
      F#              G
Let's all melt down together
  Bm
Together
            F#m/B     
Let's go together
              Bm
Let's do it together
           F#m/B   A
Let's go together

B               A
B               A

   D     G6
Forever
   D     G6
Forever
       G               D
Pretty sirens don't go flat
            A                    G
It's not supposed to happen like that
         Em     D
Not like that
         G
Not like that


B                            Gm              D    
We've got to keep our little clique clicking at 130 BPM
            G
It's not too slow
         Em                             D
If we've got to burn out, let's do it together
      F#              G
Let's all melt down together
  Bm
Together
            F#m/B     
Let's go together
              Bm
Let's do it together
           F#m/B   A
Let's go together

D



Intro:(0:00)

Guitar
   B            Emaj7/G#  F#6/A#
e|-14-----------------------------|
b|------12------4---------4-------|
g|--------------4---------6-------|
d|-13---13------2---------4-------|
a|--------------------------------|
e|--------------4---------6-------|
Piano
e|--------------------------------|
b|--------------------------------|
g|--------------------------------|
d|--------------------------------|
a|--------------------------------|
e|------7-------------------------|


Verse(0:09)


Guitar 1
   B                               A
e|----------------------------------------------|
b|----------------------------------------------|
g|-----------------------------------6-66-6-6-6-|
d|---9-99-9--9-99-9--9-99-9-9-9-9-9--7-77-7-7-7-|
a|---9-99-9--9-99-9--9-99-9-9-9-9-9-------------|
e|-77777777777777777777777777777777555555555555-|
Guitar 2
e|-----------------------------------------1717-|
b|---------------------------------17-1717------|
g|-----------------------------------------1818-|
d|---------------------------------19-1919------|
a|----------------------------------------------|
e|----------------------------------------------|

Guitar 1
   B                               A
e|------------------------------------------|
b|------------------------------------------|
g|-----------------------------------6-66-6-|
d|---9-99-9--9-99-9--9-99-9-9-9-9-9--7-77-7-|
a|---9-99-9--9-99-9--9-99-9-9-9-9-9---------|
e|-7777777777777777777777777777777755555555-|
Guitar 2
e|-------------------------------------1717-|
b|-----------------16-1616-16-1616-1717-----|
g|-16-1616-16-1616-16-1616-16-1616-----1818-|
d|-16-1616-16-1616-----------------1919-----|
a|------------------------------------------|
e|------------------------------------------|



Chorus 1(0:26)

Organ
   D                G6               D                G6
e|-10----10------10-12----12------12-10----10------10-12----12------12-|
b|-----10------10-------12------12-------10------10-------12------12---|
g|---11------11-------12------12-------11------11-------12------12-----|
d|---------------------------------------------------------------------|
a|---------------------------------------------------------------------|
e|---------------------------------------------------------------------|

Electric guitar
   G        D        A
e|----------------------------|
b|----------------------------|
g|----------------------------|
d|----------77777777----------|
a|-55555555-55555555-77777777-|
e|-33333333----------55555555-|
Keyboard
e|----------------------------|
b|----------------------------|
g|----------------------------|
d|----------44774444-22222222-|
a|-55555555-------------------|
e|----------------------------|


Acoustic guitar
   G                Em       D        G
e|-------------------------------------------------------|
b|-------------------------------------------------------|
g|-------------------------------------------------------|
d|---------------------------7777777-7-------------------|
a|-5555555555555555-22222222-5555555-5--5555555555555555-|
e|-3333333333333333-00000000------------3333333333333333-|
Bass
g|---------77664422-------4/-7777991111-------------4477-|
d|------------------222222--------------555555555555-----|
a|-------------------------------------------------------|
e|-------------------------------------------------------|




Post-chorus

Electric guitar
   A
e|----------|
b|----------|
g|----------|
d|-77--77---|
a|-77--77---|
e|-55--55---|



Verse 2(0:48)

Same as verse 1 but add this:

Keyboard
   B                         A          B                           A
e|-------14-12-11------12-11------/12-|--------14-12-11-------11-12-------|
b|-12---------------12-------10-------|-12-----------------12-------10----|
g|------------------------------------|-----------------------------------|
d|------------------------------------|-----------------------------------|
a|------------------------------------|-----------------------------------|
e|------------------------------------|-----------------------------------|

Chorus 2(1:05)

Almost the same as chorus one except for this change

(1:12)
Electric guitar
   G        A        A
e|----------------------------|
b|----------------------------|
g|----------------------------|
d|----------------------------|
a|-55555555-77777777-77777777-|
e|-33333333-55555555-55555555-|
Keyboard
e|----------------------------|
b|----------------------------|
g|----------------------------|
d|----------------------------|
a|-55555555-44774477-77774477-|
e|----------------------------|


Don't add the post-chorus


Bridge(1:26)

Part 1

Keyboard 1
   B       Gm  D           G       Em      D       F#7     G
e|---------14-------------/14---------------------------------------|
b|-12----------------------------------12------15------14-----------|
g|-------------14------11------12----------14------11----------12---|
d|-----------------12--------------14----------------------12-------|
a|------------------------------------------------------------------|
e|------------------------------------------------------------------|
Keyboard 2
e|-------------5---------2-5---3------------------------------------|
b|---------3-------3---3-----------5-------------------7------------|
g|-4------------------2----------------4---7-------6-------4---7----|
d|---------------------------------------------7--------------------|
a|------------------------------------------------------------------|
e|------------------------------------------------------------------|
Keyboard 3
e|-7777777766665555--------77777777---------------------------------|
b|-7777777788887777777777778888888888888888777777775555555533333333-|
g|-8888888877777777777777777777777799999999777777776666666644444444-|
d|-----------------77777777--------99999999777777778888888855555555-|
a|------------------------------------------------------------------|
e|------------------------------------------------------------------|


Part 2(1:40)

Guitar
   Bm                          F#m/B
e|------------------------------------------------------------------|
b|------------------------------------------------------------------|
g|-11--------------------------9------------------------------------|
d|-----------------11----12--------9---------------11---------------|
a|---------------------------------------------------------9--------|
e|------------------------------------------------------------------|
Bass 1
g|-------16---\11--------16---\11--------14---\11--------14---\11---|
d|---1214------------1214------------1214------------1214-----------|
a|-14--------------14--------------14--------------14---------------|
e|------------------------------------------------------------------|
Bass 2
g|-------19---\16--------19---\16--------18---\14--------18---\14---|
d|------------------------------------------------------------------|
a|------------------------------------------------------------------|
e|------------------------------------------------------------------|


Guitar
   Bm                          F#m/B               A                  B(start of solo)
e|------------------------------------------------------------------|----|
b|------------------------------------------------------------------|----|
g|-11--------------------------9------------------------------------|----|
d|-----------------11----12--------9---------------11---------------|-13-|
a|------------------------------------------------------------------|----|
e|------------------------------------------------------------------|----|
Bass 1
g|-------16---\11--------16---\11--------14---\11--11---------------|----|
d|---1214------------1214------------1214------------141412--1214---|----|
a|-14--------------14--------------14-------------------------------|-14-|
e|------------------------------------------------------------------|----|
Bass 2
g|-------19---\16--------19---\16--------18---\14-------------------|----|
d|------------------------------------------------------------------|----|
a|------------------------------------------------------------------|----|
e|------------------------------------------------------------------|----|




Solo(1:53)

Part 1

Keyboard 1
   B                                                  A
e|-7----------------------7-9--5--------------------7\5-------------------|
b|-7----------------------7-7--7--------------------7\5-------------------|
g|------------------------------------------------------------------------|
d|------------------------------------------------------------------------|
a|------------------------------------------------------------------------|
e|------------------------------------------------------------------------|
Keyboard 2
e|----------------------19-------------------------------------------17---|
b|-------------------19----------19-----19----------------19--------------|
g|-19h20-19h20-19h20----------------16----19p18-16----------19p18-16------|
d|------------------------------------------------------------------------|
a|------------------------------------------------------------------------|
e|------------------------------------------------------------------------|



Part 2 (2:01)

Guitar
       B                                   A
e|-8\|-7---7777-7----------7777-7-----------------|
b|-8\|-7---7777-7-99-7-----7777-7-9-7-7-77/10-10--|
g|---|------------99-8------------9-8-8-88/9--9---|
d|---|--------------------------------------------|
a|---|--------------------------------------------|
e|---|--------------------------------------------|


(2:09)
Chorus 1 with this riff added: 

(2:14)
Gutair
   G6
e|-10-9-7-5-7---|
b|--------------|
g|--------------|
d|--------------|
a|--------------|
e|--------------|


(2:31)
Bridge again (don't go to the post-chorus)

End with:

(2:56)
Guitar
   D
e|----------------------|
b|----------------------|
g|----------------------|
d|-12-------------------|
a|----------------------|
e|----------------------|
Bass
g|----------------------|
d|-121212---------------|
a|-------1414141212-----|
e|-----------------10---|
            
Hard to play? Try these video lessons and learn fast. | Correct




comments powered by Disqus
↑ Back to top | Tablatures and chords are parodies/interpretations of the original songs. You may use it for private study, scholarship, research or language learning purposes only