» » »

Of Montreal, Sleeping In The Beetle Bug Bass tabs (ver.1)

Artists:  A B C D E F G H I J K L M N O P Q R S T U V W X Y Z # 

Sleeping In The Beetle Bug Bass tabs (ver.1)

Of Montreal Tabs
 Rating:
4/5 (4 votes)
Sleeping In The Beetle Bug lessons Tabs too difficult? Try these video lessons and learn fast
1
                Artist/Band: of Montreal
Label: Bar/None Records

Tuning: (Standard) E A D G

Key: ~~ - Let Ring
     h  - Hammer on
     /  - Slide to Fret

G|------------------------------------------------------------------------------------------------------------------|
D|----------------------------------------------4-2-0-2h4-0-5--5-4--4-----------------------------5-4h5-4h5-4h5-4h5-|
A|-2--2-4-4--4-5-----------------------5--5---------------------------2-2-2-2-2-2-2-4--4-5--5-----------------------|x2
E|-----------------7/5/3/5-3--3-0-0--0------------------------------------------------------------------------------|

0:00 - 0:33

G|-------------------------------------------------------------------------------------------------|
D|----------------------------------------------4-2-0-2h4-0-5--5-4--4------------------------------|
A|-2--2-4-4--4-5-----------------------5--5---------------------------2-2-2-2-2-2-2-4--4-5-4-2-1---|
E|-----------------7/5/3/5-3--3-0-0--0-----------------------------------------------------------5-|

0:33 - 0:47

G|---------------------------------------------------------------------------------------------------|
D|---------------------------------------------------------------------------------------------------|
A|----------------5-5-5--5-2-2-2-2-2-0-0--------------------5-5-5--5-4-4-4-4-4-5-5-5-2-2-2-2-2-4-4-4-|
E|-5-5--5-0-0-5-5------------------------2-5-5-5--5-0-0-5-5------------------------------------------|

0: 47 - 1:03

G|------------------------------------------------------------------------------------------------------------------|
D|----------------------------------------------4-2-0-2h4-0-5--5-4--4-------------------------------4h5-4h5-4h5-4h5-|
A|-2--2-4-4--4-5-----------------------5--5---------------------------2-2-2-2-2-2-2-4--4-5--5-----------------------|
E|-----------------7/5/3/5-3--3-0-0--0------------------------------------------------------------3-----------------|

1:03 - 1:20

G|-------------------------------------------------------------------------------------------------|
D|----------------------------------------------4-2-0-2h4-0-5--5-4--4------------------------------|
A|-2--2-4-4--4-5-----------------------5--5---------------------------2-2-2-2-2-2-2-4--4-5-4-2-1---|
E|-----------------7/5/3/5-3--3-0-0--0-----------------------------------------------------------5-|

1:20 - 1:34

G|---------------------------------------------------------------------------------------------------|
D|---------------------------------------------------------------------------------------------------|
A|----------------5-5-5--5-2-2-2-2-2-0-0--------------------5-5-5--5-4-4-4-4-4-5-5-5-2-2-2-2-2-4-4-4-|
E|-5-5--5-0-0-5-5------------------------2-5-5-5--5-0-0-5-5------------------------------------------|

1:34 - 1:50

G|--------------------------------------------------------------|
D|--------------------------------------------------------------|
A|-5--5-5--5-7--7-7--7-5--5-5-4-2-2-2------------5--5-5-2-------|
E|------------------------------------5-3-3--3-5----------5-3~~-|

1:50 - 2:06

G|---------------|
D|-5-4-2-4/2-----|
A|-----------5~~-|
E|---------------|

2:06 - 2:18
            
Submit corrections

comments powered by Disqus
↑ Back to top | Of Montreal Bass for Sleeping In The Beetle Bug. Lyrics for acoustic guitar and electric guitar. 1 Tablatures and chords are parodies/interpretations of the original songs. You may use it for private study, scholarship, research or language learning purposes only