» » »

Of Montreal, Sink The Seine Tabs (ver.1)

Artists:  A B C D E F G H I J K L M N O P Q R S T U V W X Y Z # 

Sink The Seine Tabs (ver.1)

Of Montreal Tabs
Rating:
0/5 (0 votes)
Sink The Seine lessons Tabs too difficult? Try these video lessons and learn fast
                D (carried over from Suffer for Fashion)

Gm     Eb      C



F7                           C
You're no different from the prints that crease the wires
F7                    Am    Am/G      Bb        
Or mosquitos that now operate on your brain
                  D7                     Gm
Thought that if I sank the Seine I might find you
Eb        C
  I might find you

F7                        C
I'm no different from the claw they mic from the stair
F7                        Am       Am/G            Bb
Or fake diamonds that are glued to eyes of plastic crows
                       D7                     Gm
Thought that where the planters go, you might find me
Eb           C
   You might find me

Keyboard
   D                 Gm      Eb      C                 F7      C
e|-----------------|-6-6-6-6-------------------------|-5-5-5-5-8-8-8-8-|
b|-----------------|-8-8-8-8-8-8-8-8-5-5-5-5-5-5-5-5-|-4-4-4-4-8-8-8-8-|
g|-----------------|-7-7-7-7-8-8-8-8-5-5-5-5-5-5-5-5-|-5-5-5-5-9-9-9-9-|
d|----------4------|---------8-8-8-8-5-5-5-5-5-5-5-5-|-----------------|
a|-5-(held)--------|---------------------------------|-----------------|
e|-----------------|---------------------------------|-----------------| 
Bass
g|-----------------|---------------------------------|---------5-5-5-5-|
d|-----------------|-5-5-3-3-------------------------|-3-3-3-3---------|
a|-----------------|---------6-6-6-6-3-3-3-3-3-3-3-3-|-----------------|
e|-----------------|---------------------------------|-----------------|

Keyboard
   F7      Am  Am/G Bb       D7
e|-5-5-5-5-9-9-9-9--10101010-8-8-8-8--|
b|-4-4-4-4-10101010-11111111-10101010-|
g|-5-5-5-5-8-8-8-8--10101010-11111111-|
d|------------------------------------|
a|------------------------------------|
e|------------------------------------| 
Bass
g|---------------------------7-7-7-7--|
d|-3-3-3-3-7-7-5-5--8-8-8-8-----------|
a|------------------------------------|
e|------------------------------------|

Keyboard
   Gm      Eb      C             F7      C
e|-6-6-6-6---------------------|-5-5-5-5-8-8-8-8-|
b|-8-8-8-8-8-8-8-8-5-5-5-5-5-5-|-4-4-4-4-8-8-8-8-|
g|-7-7-7-7-8-8-8-8-5-5-5-5-5-5-|-5-5-5-5-9-9-9-9-|
d|---------8-8-8-8-5-5-5-5-5-5-|-----------------|
a|-----------------------------|-----------------|
e|-----------------------------|-----------------| 
Bass
g|-----------------------------|---------5-5-5-5-|
d|-5-5-3-3---------------------|-3-3-3-3---------|
a|---------6-6-6-6-3-3-3-3-3-3-|-----------------|
e|-----------------------------|-----------------|

Keyboard
   F7      Am  Am/G Bb       D7
e|-5-5-5-5-9-9-9-9--10101010-8-8-8-8--|
b|-4-4-4-4-10101010-11111111-10101010-|
g|-5-5-5-5-8-8-8-8--10101010-11111111-|
d|------------------------------------|
a|------------------------------------|
e|------------------------------------| 
Bass
g|---------------------------7-7-7-7--|
d|-3-3-3-3-7-7-5-5--8-8-8-8-----------|
a|------------------------------------|
e|------------------------------------|

Keyboard
   Gm      Eb      C
e|-6-6-6-6-------------|
b|-8-8-8-8-8-8-8-8-5-5-|
g|-7-7-7-7-8-8-8-8-5-5-|
d|---------8-8-8-8-5-5-|
a|---------------------|
e|---------------------| 
Bass
g|---------------------|
d|-5-5-3-3-------------|
a|---------6-6-6-6-3-3-|
e|---------------------|
 
            
Submit corrections

comments powered by Disqus
↑ Back to top | Of Montreal Tabs for Sink The Seine. Lyrics for acoustic guitar and electric guitar. Tablatures and chords are parodies/interpretations of the original songs. You may use it for private study, scholarship, research or language learning purposes only