» » »

Of Montreal, Requiem Of Omm Tabs (ver.1)

Artists:  A B C D E F G H I J K L M N O P Q R S T U V W X Y Z # 

Requiem Of Omm Tabs (ver.1)

Of Montreal Tabs
Rating:
0/5 (0 votes)
Requiem Of Omm lessons Tabs too difficult? Try these video lessons and learn fast
                "(2)
intro:
e--2-----|
b--2-----|
g--3-----|
d--4-----|
a--4-----|
E--2-----|
   F#
...when i met you i was
(i remember feeling...)

verse:
e----------------------------------------------------|
b-------12-12-------12-12-------12-12-------12-12----|
g-------11-11-------11-11-------11-11-------11-11----|
d----13-------13-13-------13-13-------13-13-------13-|
a----------------------------------------------------|
E----------------------------------------------------|
      B
...just a kid, hadn't built up my de-
...like a ship, whose captain was too drunk to

e-----------------------------------------------------|
b-------12-12-------12-12-------12-12-------12-12-----|
g-------13-13-------13-13-------13-13-------13-13-----|
d----14-------14-14-------14-14-------14-14-------14--|
a-----------------------------------------------------|
E-----------------------------------------------------|
      E
-fenses, so i gave my heart comp-
steer, and you watched as i was
e----------------------------------------------------|
b-------12-12-------12-12-------12-12-------12-12----|
g-------11-11-------11-11-------11-11-------11-11----|
d----13-------13-13-------13-13-------13-13-------13-|
a----------------------------------------------------|
E----------------------------------------------------|
      B
...letely, vaseline over the...
sinking, waving sadly from the

e----------------------------------------------------|
b-------12-12-------12-12-------12-12-------12-12----|
g-------13-13-------13-13-------13-13-------13-13----|
d----14-------14-14-------14-14-------14-14-------14-|
a----------------------------------------------------|
E----------------------------------------------------|
      E
lenses, memories don't go aw-
pier, memories don't go aw-

e----------------------------------------------------|
b-------9-9---------9-9---------9-9---------9-9------|
g-------9-9---------9-9---------9-9---------9-9------|
d----11-------11-11-------11-11-------11-11-------11-|
a----------------------------------------------------|
E----------------------------------------------------|
       C#m
ay, i remember every...

e----------------------------------------------------|
b-------14-14-------14-14-------14-14-------14-14----|
g-------15-15-------15-15-------15-15-------15-15----|
d----16-------16-16-------16-16-------16-16-------16-|
a----------------------------------------------------|
E----------------------------------------------------|
      B
day

e----7-----X------------------2-------------------------|
b----7-----9------------------2-------------------------|
g----8-----9------------------3-------------------------|
d----9-----9------------------4-------------------------|
a----9-----7------------------4-------------------------|
E----7-----X------------------2-------------------------|
     B     E                  F#
... i never ever stop wonderin...

e----7-----X------------------4-------------------------|
b----7-----9------------------5-------------------------|
g----8-----9------------------6-------------------------|
d----9-----9------------------6-------------------------|
a----9-----7------------------4-------------------------|
E----7-----X------------------X-------------------------|
     B     E                 C#m
... wonderin if you still think of us...

e----7-----X------------------5-------------------------|
b----7-----9------------------5-------------------------|
g----8-----9------------------6-------------------------|
d----9-----9------------------7-------------------------|
a----9-----7------------------7-------------------------|
E----7-----X------------------5-------------------------|
     B     E                  A
... i dont need a photograph cause you...

e----4-----2------------------4-----2-------------------|
b----5-----2------------------5-----2-------------------|
g----6-----3------------------6-----3-------------------|
d----6-----4------------------6-----4-------------------|
a----4-----4------------------4-----4-------------------|
E----X-----2------------------X-----2-------------------|
    C#m    F#                C#m    F#
... never left my mind... no you never left my mind

bridge:
e----X------------------------X-------------------------|
b----9------------------------8-------------------------|
g----9------------------------9-------------------------|
d----9------------------------9-------------------------|
a----7------------------------7-------------------------|
E----X------------------------X-------------------------|
     E                        Em
it's such a burden to carry 'round, the vestiges of

e----7------------------------4-------------------------|
b----7------------------------4-------------------------|
g----8------------------------3-------------------------|
d----9------------------------6-------------------------|
a----9------------------------6-------------------------|
E----7------------------------4-------------------------|
     B                        G#
dead dreams. and i dont want to

e----4--------------------------------------------------|
b----5--------------------------------------------------|
g----6--------------------------------------------------|
d----6--------------------------------------------------|
a----4--------------------------------------------------|
E----X--------------------------------------------------|
    C#m
make a wake out of my life. i just had to let you

e----2--------------------------------------------------|
b----2--------------------------------------------------|
g----3--------------------------------------------------|
d----4--------------------------------------------------|
a----4--------------------------------------------------|
E----2--------------------------------------------------|
     F#
go...

outro same as verse.
end on:
e--7-----|
b--7-----|
g--8-----|
d--9-----|
a--9-----|
E--7-----|
   B
"            
Submit corrections

comments powered by Disqus
↑ Back to top | Of Montreal Tabs for Requiem Of Omm. Lyrics for acoustic guitar and electric guitar. Tablatures and chords are parodies/interpretations of the original songs. You may use it for private study, scholarship, research or language learning purposes only