» » »

Oslo In The Summertime Bass tabs (ver.1)

Artists:  A B C D E F G H I J K L M N O P Q R S T U V W X Y Z # 

Oslo In The Summertime Bass tabs (ver.1)

Of Montreal
Rating:
5/5 (3 votes)
Tabs too difficult? Try these video lessons and learn fast.
                -------------------------------------------------------------------------------
-------------------------------------------------------------------------------

Tuning:standard

play this over.. and over... and over

G|---4---4---4-------4---4---4--------10--10--10--9---6---6---7---7----------|
D|-------------3-4----------------------------------7---7---8---8------------|
A|-2---2---2-------2---2---2---4-5--10--10--10--10---------------------------|
E|---------------------------------------------------------------------------|


then theres the one part that goes

G|----4--------4---------10----------6---------------------------------------|
D|---------------------------------7-----------------------------------------|
A|--2--------2--------10-----------------------------------------------------|
E|---------------------------------------------------------------------------|

then the first part over and over


| /  slide up
| \  slide down
| h  hammer-on
| p  pull-off
| ~  vibrato
| +  harmonic
| x  Mute note
===============================================================================  
            
Tabs too difficult? Try these video lessons and learn fast.


comments powered by Disqus
↑ Back to top | Tablatures and chords are parodies/interpretations of the original songs. You may use it for private study, scholarship, research or language learning purposes only