>
 >
My Favorite Boxer

My Favorite Boxer Guitar Tabs

Of Montreal - My Favorite Boxer chords, tabs, tablatures, lyrics

Guitar lessons | Add/correct | Request | Top 50 tabs Artists:  A B C D E F G H I J K L M N O P Q R S T U V W X Y Z 0-9

My Favorite Boxer Guitar Tabs – Of Montreal

CD, Sheet music, Poster

Do you like My Favorite Boxer? Share with your friends now
ChordsTabsUkulele
-------------------------------------------------------------------------------
-------------------------------------------------------------------------------

Tuning: Standard


I couldn't find the tab for this song anywhere... so I decided I'd give it a shot.  The 
part that is really tricky is the fingerpicked part, but everything else is straight forward.


Intro/Verse

e|-10---8----6/8-/10\8--8--8--8----6-------5--5---3\1/5\3---1-1-|
B|-11---9----7/9-/11\9--9--9--9----7---3---6--6---4\2/6\4---2-2-|
G|-12---10---8/10/12\10-10-10-10---8---3---7--7---5\3/7\5---3-3-|   x4
D|-12---10---8/10/12\10-10-10-10---8-------7--7---5\3/7\5---3-3-|
A|--------------------------------------------------------------|
E|--------------------------------------------------------------|

These chords are fingerpicked... There is not too much guitar... this is how I hear and 
it.

     Fm            Bbm                                 Bbm                 Fm
e|---1-------1--------------------------------------------6----------6--------1------1----------|
B|-----1-------1-----3-------3-------3-----4-4-2-4----------6----------6--------1------1---6-4-2|
G|-------1-------1-----2-------2-------2----------------------6----------6--------1------1------|
D|-3-------3-------------2-------2-------2--------------8----------8--------3-------3-----------|
A|-----------------1-------1-------1------------------8----------8------------------------------|
E|----------------------------------------------------------------------------------------------|
   But I'm So Weak...


Strum these chords:

    c#m G#m Bbm     G#m A#m G#    G#7
e|---4---4---6-------4---2---4-----4-|
B|---5---4---6-------4---2---4-----4-|
G|---6---4---6-------4---2---5-----5-|
D|---6---6---8-------6---4---6-----4-|
A|---4---6---8-------6---4---6-----6-|
E|---4---4---6-------4---2---4-----4-|
    One Sunny Day...


  Bbm    c#m G#m Bbm     G#m A#m G#    G#7   Bbm
e|-1------4---4---6-------4---2---4-----4-----1-|
B|-2------5---4---6-------4---2---4-----4-----2-|
G|-3------6---4---6-------4---2---5-----5-----3-|
D|-3------6---6---8-------6---4---6-----4-----3-|
A|-1------4---6---8-------6---4---6-----6-----1-|
E|-1------4---4---6-------4---2---4-----4-----1-|
          When I heard some laughter...


   Fm     F#m     Fm      F#m     Cm      Bbm      Cm
e|-1-------2-------1-------2-------4-------2-------4-|
B|-1-------2-------1-------2-------4-------2-------4-|
G|-1-------2-------1-------2-------4-------2-------4-|
D|-3-------4-------3-------4-------6-------4-------6-|
A|-3-------4-------3-------4-------6-------4-------6-|
E|-1-------2-------1-------2-------4-------2-------4-|
  It was then that I saw...


  Bbm    c#m G#m Bbm     G#m A#m G#    G#7
e|-1------4---4---6-------4---2---4-----4-|
B|-2------5---4---6-------4---2---4-----4-|
G|-3------6---4---6-------4---2---5-----5-|
D|-3------6---6---8-------6---4---6-----4-|
A|-1------4---6---8-------6---4---6-----6-|
E|-1------4---4---6-------4---2---4-----4-|
          Oh  oh  oh...


  Bbm    c#m G#m Bbm     G#m A#m G#    G#7
e|-1------4---4---6-------4---2---4-----4-|
B|-2------5---4---6-------4---2---4-----4-|
G|-3------6---4---6-------4---2---5-----5-| x2
D|-3------6---6---8-------6---4---6-----4-|
A|-1------4---6---8-------6---4---6-----6-|
E|-1------4---4---6-------4---2---4-----4-|
        As Hector walked by...


  Bbm
e|-1--1--1--1-----|
B|-2--2--2--2-----|
G|-3--3--3--3-----|
D|-3--3--3--3-----|
A|-1--1--1--1-----|
E|-1--1--1--1-----|
   Heeectooor!!!!!


Ending:


e|-10---8----6/8-/10\8--8--8--8----6-------5--5---3\1/5\3---1-1-|
B|-11---9----7/9-/11\9--9--9--9----7---3---6--6---4\2/6\4---2-2-|
G|-12---10---8/10/12\10-10-10-10---8---3---7--7---5\3/7\5---3-3-|
D|-12---10---8/10/12\10-10-10-10---8-------7--7---5\3/7\5---3-3-|
A|--------------------------------------------------------------|
E|--------------------------------------------------------------|
   Hector Ormano's my favorite boxer...


                                                  Rit             Rit
e|-10---8----6/8-/10\8--8--8--8----6-------5--5---3\1/5\3---1-1---3\1/5\3--1-1---5/6-|
B|-11---9----7/9-/11\9--9--9--9----7---3---6--6---4\2/6\4---2-2---4\2/6\4--2-2---5/6-|
G|-12---10---8/10/12\10-10-10-10---8---3---7--7---5\3/7\5---3-3---5\3/7\5--3-3---6/7-|
D|-12---10---8/10/12\10-10-10-10---8-------7--7---5\3/7\5---3-3---5\3/7\5--3-3---7/8-|
A|-----------------------------------------------------------------------------------|
E|-----------------------------------------------------------------------------------|
    My father says I'm...


                                         ---End---

| /  slide up
| \  slide down
| h  hammer-on
| p  pull-off
| ~  vibrato
| +  harmonic
| x  Mute note
===============================================================================





Comments


Popular Of Montreal tabs & chords
Rapture Rapes The Muses 2 Bass Tabs
Suffer For Fashion Bass Tabs
Wraith Pinned To The Mist And Other Games Bass Tabs
Autobiographical Grandfather Chords
My Darling Ive Forgotten Chords
An Eluardian Instance 1 Tabs
For Our Elegant Caste Tabs
Montreal Ukulele
My Friend Will Be Me Ukulele
Suffer For Fashion Ukulele


Song lyrics



↑ Back to top | Tablatures and chords are parodies/interpretations of the original songs. You may use it for private study, scholarship, research or language learning purposes only
© 2014 AZChords.com Contact us | Privacy policy | DMCA | Add/correct tabs | Request tabs | Top 50 tabs