» » »

Labyrinthian Pomp Tabs (ver.1)

Artists:  A B C D E F G H I J K L M N O P Q R S T U V W X Y Z # 

Labyrinthian Pomp Tabs (ver.1)

Of Montreal
Rating:
5/5 (1 vote)

Hard to play? Try these video lessons and learn fast.
                Intro:
Bass                                                   Guitar
e|-----------------------------------------------------|----|
b|-----------------------------------------------------|----|
g|-----------------------------------------------------|----|
d|-----------------------------------------------------|-6/8|
a|-55--55--55--55--55--55--55--55--55--55--55--66--6666|----|
e|-----------------------------------------------------|----|

Bb
How you want to tag my style
When I am so superior?
How you want to hate a thing
When you are so inferior?

Guitar(listen for complicated timing)
   Bb
e|-------6--------6----666666-----------8/10-----------10-10-|
b|-----8-6--6--8--6----999999-9/11--8888-----666666----9--9--|
g|-77777----7----------777777-------7777-----777777----------|
d|-8888--------8-----------------------------------6---------|
a|-----------------------------------------------------------|
e|-----------------------------------------------------------|

Ab
How you want to mess
F#                     Gm          Dm    C#m  Cm
How you want to mess my spotless interior?

Bb
Let's just say you are not the destroyer
Guitar
   Bb
e|------6666----4------6666----------|
b|------9999-------6---9999----------|
g|------7777----5--7---7777----------|
d|-----------------------------------|
a|-----------------------------------|
e|-----------------------------------|

F5
I've got my bright girl near me
She's so much taller
Wth a crisp endorsement
         D5       F5
G5            Bb5
She's so meta-referenced and all 
       G5
Shares my strange urge to
F5                Bb5                D5
Smash a window in every house on our block

   Dm
e|-------------|
b|-6-----------|
g|-7-7---------|
d|---7-7-5-3---|
a|-----8-7-5---|
e|-------------|

  Eb5
Delinquent days are here again

How you want to tag my style
When I am so superior?
How you want to hate a thing
When you are so inferior?
How you want to mess
How you want to mess my spotless interior?

Let's just say you are not the destroyer

I've got my Georgie Fruit on
He's my dark mutation
For my demented past time
Giving replicators somewhere to go
But we're authentic
You can test my talons
Against your cursive body
But the controller spheres have disappeared
And it hurts
Delinquent days are here again

Keyboard
   Bb Gb   Bb F  F/C Cm   Db7   Eb
e|-10-6----10-5--8---3------------------------------------------|
b|-------------------4----6-----4-4-4-4-4-4-4-4-4-4-4-4-4-4-4-4-|
g|-10-7----10-5------5----4-----3-3-3-3-3-3-3-3-3-3-3-3-3-3-3-3-|
d|-8--5----8--3-----------6-----5-5-5-5-5-5-5-5-5-5-5-5-5-5-5-5-|
a|-------------------3----4-----6-6-6-6-6-6-6-6-6-6-6-6-6-6-6-6-|
e|---------------8----------------------------------------------|

(It's like to disappear forever, but I'm not afraid)


Abm7                                 Db7
There's two gods for every one, one, two gods for the beasts
   Ebm7      Bb7
An hour dead 
Abm7
Deflects our eggs
                Db7
On latitude, oh 1 degree
                   Ebm7         Bb7
I trusted you, no, don't explain

B5                              C#5
Moving in clipped tempos making sad dreams
Of the flags appearing
B5                      D#5
Crazy how the symbolism works
      B5
Don't look at them 
B5
            
Hard to play? Try these video lessons and learn fast. | Correct




comments powered by Disqus
↑ Back to top | Tablatures and chords are parodies/interpretations of the original songs. You may use it for private study, scholarship, research or language learning purposes only