» » »

Of Montreal, Gronlandic Edit Bass tabs (ver.1)

Artists:  A B C D E F G H I J K L M N O P Q R S T U V W X Y Z # 

Gronlandic Edit Bass tabs (ver.1)

Of Montreal Tabs
Rating:
4/5 (2 votes)
Gronlandic Edit lessons Tabs too difficult? Try these video lessons and learn fast
                This song's pretty easy, you can play it on bass or guitar. It's fun to sing along with 
the high part!!)

Intro and verses:

G|----------------------------------|
D|--------2-------------------------|
A|----------------0--0--2   x8------|     (I am satisfied...)
E|--0--0----------------------------|

G|--------2-------------------------|
D|-----------------0--0--2----------|
A|--0--0-----------------   x2------|     (Daylight I'm so absent minded...)
E|----------------------------------|

G|---------------------------|
D|--------2------------------|
A|----------------0--0--2----|   x2
E|--0--0---------------------|

G|--------2----------------|
D|-----------------0--0--2-|
A|--0--0-------------------|   x2    (Hope I'm not erasing myself...)
E|-------------------------|

G|--------4--------------|
D|-----------2--2--4-----|
A|--2--2-----------------|  x2
E|-----------------------|


Chorus:

Listen to song for how many times to play each note, this might not be right

G|-----5-----5-----5-----4-----4-----4-----|
D|-----------------------------------------|  (I guess it would be nice)
A|--3-----3-----3-----2-----2-----2--------|
E|-----------------------------------------|

G|-----8-----8-----8------12------12------12-----|
D|-----------------------------------------------|  (To give my heart to a
A|--6-----6-----6-----10------10------10---------|   god)
E|-----------------------------------------------|

G|-----5-----5-----5-----5-----7-----7-----7-----7-----|
D|-----------------------------------------------------|  (But which one,
A|--3-----3-----3-----3-----5-----5-----5-----5--------|   which one do I..)
E|-----------------------------------------------------|

G|-----4-----4-----4-----4------|
D|------------------------------| x2  (Choo-oo-oo-oo-se)
A|--2-----2-----2-----2---------|
E|------------------------------|

G|-----2-----2-----2-----7-----7-----7-----|
D|-----------------------------------------|           (Church is filled
A|--0-----0-----0-----5-----5-----5--------|            with losers)
E|-----------------------------------------|


G|-----8-----8-----8------12------12------12------12----|  (Psycho or
D|------------------------------------------------------|   confused)
A|--6-----6-----6-----10------10------10------10--------|
E|------------------------------------------------------|

G|-----5-----5-----5-----7-----7-----7-----| (I just want to hold the di...)
D|-----------------------------------------|
A|--3-----3-----3-----5-----5-----5--------|
E|-----------------------------------------|

G|-----5-----5-----5-----5------------------|
D|----------------------------- x2----------|         (vi-i-i-i-ne)
A|--3-----3-----3-----3---------------------|
E|------------------------------------------|

G|-----2-----2-----2-----2------------------|
D|------------------------------------------|
A|--0-----0-----0-----0-------- x2----------|         (In mi-i-i-i-ne)
E|------------------------------------------|

And forGEEEEEEEEEEEEEEEEEEEEEEEEEEEEEEEEEEEEEEEEEEET
(This part goes back to the intro/verses)

There's one more chorus and then the end of the song is just the regular verse with different singing.
            

comments powered by Disqus
↑ Back to top | Of Montreal Bass for Gronlandic Edit. Lyrics for acoustic guitar and electric guitar. Tablatures and chords are parodies/interpretations of the original songs. You may use it for private study, scholarship, research or language learning purposes only