» » »

Faberge Falls For Shuggie Tabs (ver.1)

Artists:  A B C D E F G H I J K L M N O P Q R S T U V W X Y Z # 

Faberge Falls For Shuggie Tabs (ver.1)

Of Montreal
Rating:
5/5 (1 vote)

Hard to play? Try these video lessons and learn fast.
                D      G      A      G
D      G      A      G

F#

F#
Those with the golden axe have tried to tell me
(What they say)
That the bird in my chest was dead
But that's never, never, never

She ain't my thug no more, ain't no kind of killer
And she can break them off if she damn well pleases 
Just as long as she brings it home to me
(And it's still hot)

Can you touch what I'm saying?
It's like, oh, did Shuggie do it yet?
(No, not yet, wait)

Those with the golden axe have tried to tell me
(Tell you what?)
That the sex in my walk was cotton soft
But that's never, never, never

D          G           A         G
D          G           A         G

F#
With question marks in my eye
And your strange name pressed to our lips
We arrived at number eleven
So charged and ready for slavery
I won't take the stage straight, understand
Under capes with druggy cock dragons
I want to put out so bad
But something bad says the kid's probably right

Are you deflating at the question?
I don't know
Now that the parachute has opened, well
Don't it make you feel good?

(Bm                A       )
Be careful how you touch me
My body is an earthquake
Ready to receive you
Mind's making glaciers
Metals for my soldiers
Let's be like strangers
Touching for the first time

Fm
Skeletal lamping, the controller sphere, false priest 






Intro:(0:00)
Some of the sounds in this intro are just weird effects so I'll tab the
parts that are definitely pitched.

Strings
   D               G               A               G
e|----5--4------------10-9------------12-11-----------10-9---------|
b|-3--3--4---------8--8--9---------10-10-11--------8--8--9---------|
g|-4---------------9---------------11--------------9---------------|
d|-----------------------------------------------------------------|
a|-----------------------------------------------------------------|
e|-----------------------------------------------------------------|
Keyboard
e|---------5---------------10--------------12--------------10------|
b|-----------7---------------12--------------14--------------12----|
g|-----------------------------------------------------------------|
d|-----------------------------------------------------------------|
a|-----------------------------------------------------------------|
e|-----------------------------------------------------------------|
Bass
g|-----------------------------------------------------------------|
d|-----------------55555555--------77777777--------55555555--------|
a|-55555555--------------------------------------------------------|
e|-----------------------------------------------------------------|

Strings
   D               G               A               G
e|----5--4------------10-9------------12-11-----------10-9---------|
b|-3--3--4---------8--8--9---------10-10-11--------8--8--9---------|
g|-4---------------9---------------11--------------9---------------|
d|-----------------------------------------------------------------|
a|-----------------------------------------------------------------|
e|-----------------------------------------------------------------|
Keyboard
e|---------5---------------10--------------12--------------10------|
b|-----------7---------------12--------------14--------------12----|
g|-----------------------------------------------------------------|
d|-----------------------------------------------------------------|
a|-----------------------------------------------------------------|
e|-----------------------------------------------------------------|
Bass
g|-----------------------------------------------------------------|
d|-----------------55555555--------77777777--------55555555--------|
a|-55555555--------------------------------------------------------|
e|-----------------------------------------------------------------|


Main part:(0:28)


Keyboard
   F#  
e|-16-------------1712------------------|-----12----------9----------------|
b|-17-------------1914------------------|14-1414141412----1010109----------|
g|----------------------------------14--|14-14--141413------11119-9-8------|
d|--------------------------------16--16|---------------9---------119------|
a|--------------------------------------|-------------11-9-----------------|
e|--------------------------------------|----------------------------------|
Bass
g|---------2---------------/4-----------|--------2---------------/4--------|
d|-2h44442---2-2234-2h4--42-------------|2h4-442---2-2234-2h4-442----------|
a|--------4----------------4--2-223-4---|-------4----------------4--2-2234-|
e|--------------------------------------|----------------------------------|


Keyboard
   F#  
e|-16-------------1712------------------|-----12----------9----------------|
b|-17-------------1914------------------|14-1414141412----1010109----------|
g|----------------------------------14--|14-14--141413------11119-9-8------|
d|--------------------------------16--16|---------------9---------119------|
a|--------------------------------------|-------------11-9-----------------|
e|--------------------------------------|----------------------------------|
Guitar
e|--------------------------------------|----------------------------------|
b|--------------------------------------|----------------------------------|
g|--------------------------------------|----------------------------------|
d|---------2---------------/4-1-112-3---|--------2---------------/4-1-1123-|
a|-2h4-442---2-2234-2h4--42-------------|2h4-442---2-2234-2h4-442----------|
e|--------4----------------4------------|-------4----------------4---------|
Bass
g|---------2---------------/4-----------|--------2---------------/4--------|
d|-2h4-442---2-2234-2h4--42-------------|2h4-442---2-2234-2h4-442----------|
a|--------4----------------4--2-223-4---|-------4----------------4--2-2234-|
e|--------------------------------------|----------------------------------|


Verse:(0:56)
Guitar
   F#
e|------------------------------------|-----------------------------------|
b|------------------------------------|-----------------------------------|
g|------------------------------------|-----------------------------------|
d|---------2----------------/4-1-1123-|--------2----------------/4-1-1123-|
a|-2h4-442---2-2234-2h4--42-----------|2h4-442---2-2234-2h4-442-----------|
e|--------4----------------4----------|-------4----------------4----------|
Guitar 2
e|------------------------------------|-----------------------------------|
b|------------------------------------|-----------------------------------|
g|-4-44442----------4-444424/6-2------|4-44442----------4-444424/6-2------|
d|--------24--------------------------|-------24--------------------------|
a|------------------------------------|-----------------------------------|
e|------------------------------------|-----------------------------------|
Bass
g|---------2----------------/4--------|--------2----------------/4--------|
d|-2h44442---2-2234-2h4--42-----------|2h4-442---2-2234-2h4-442-----------|
a|--------4----------------4---2-2234-|-------4----------------4---2-2234-|
e|------------------------------------|-----------------------------------|

repeat this a lot until

(1:51) play the intro again

(2:20) back to verse but with the keyboard part added. Keep repeating this
for ages

(3:43) vocal break

(3:57)


Guitar 1
Fm
e|------------------|      |-----------------------------------|
b|------------------|      |-----------------------------------|
g|-5555555555553366-|      |-5\--------------------------------|
d|------------------|      |-----------------------------------|
a|------------------|      |-----------------------------------|
e|------------------|      |-----------------------------------|
Guitar 2                     end on
e|------------------|      |-----------------------------------|
b|------------------|repeat|-----------------------------------|
g|------------------| lots |-----------------------------------|
d|-3333333333336666-|      |-3\--------------------------------|
a|------------------|      |-----------------------------------|
e|------------------|      |-----------------------------------|
            
Hard to play? Try these video lessons and learn fast. | Correct




comments powered by Disqus
↑ Back to top | Tablatures and chords are parodies/interpretations of the original songs. You may use it for private study, scholarship, research or language learning purposes only