» » »

Of Montreal, Dustin Hoffman Thinks About Eating The Soap Tabs (ver.1)

Artists:  A B C D E F G H I J K L M N O P Q R S T U V W X Y Z # 

Dustin Hoffman Thinks About Eating The Soap Tabs (ver.1)

Of Montreal Tabs
Rating:
0/5 (0 votes)
Dustin Hoffman Thinks About Eating The Soap lessons Tabs too difficult? Try these video lessons and learn fast
                Found on Elephant 6 site, I just did some cleaning, added/fixed lyrics, and stuff.


for this nice song, he's tuned just a (very) little bit sharp, but it'll still sound 
good if you're in regular tuning.

Intro/Verse 1:

-----------------------------------------------------------------|
-------1--------1-----1-------1-------1------------1-------------|
-----0---0----0---------0---0-------0---0--------0---0-----------|x4
---2--------0---------------------3-------33---3-------3---------|
------------------3-3-----3-----2------------2-------------------|
-----------------------------------------------------------------|
If you want to be a good monster, don't swallow mine
It's all fine and dandy, this slow betrayal
You found friends, to agree and understand
If you want to be a good monster, don't bother

Em    A

Chorus:

D         Em         Bm      F#m
mix bag, grab bag, pop the question,

      G             D                 A
have a ball running wild between your spaghetti legs

D         Em         Bm   F#m
mix bag, grab bag, dirty pots,

        D           A          Bm
you best believe my love could fix the faucet


then, for the awwwing:

D  Em  F#m  G  x3

Em   A

Verse 2:

-----------------------------------------------------------------|
-------1--------1-----1-------1-------1------------1-------------|
-----0---0----0---------0---0-------0---0--------0---0-----------|x4
---2--------0---------------------3-------33---3-------3---------|
------------------3-3-----3-----2------------2-------------------|
-----------------------------------------------------------------|
You are a locked window, I can see in but can't get in
Locked in your room, until you've learned your lesson
I am a gift, which you refuse to open
If you want to be a good monster, don't bother

Em    A

Chorus:

D         Em         Bm      F#m
mix bag, grab bag, pop the question,

      G             D                 A
have a ball running wild between your spaghetti legs

D         Em         Bm   F#m
mix bag, grab bag, dirty pots,

        D           A          Bm
you best believe my love could fix the faucet

(Repeat Chorus)

D             Em
Chasing after honey
Bm                F#m
Bet you found something
D                 Em
Why name me what I want
Bm        F#m
If I am a gift
D                Em
Just waiting to be opened
Bm               Em
Coming out of my shell?
D         Bm
If I am a gift
F#m               Em
Why don"t you open me?

A


Haven't heard in this song in a long time, just trying to work it out from memory and 
the bit of tab I found.

Let me know about any mistakes you find, I am good at making them.
            

comments powered by Disqus
↑ Back to top | Of Montreal Tabs for Dustin Hoffman Thinks About Eating The Soap. Lyrics for acoustic guitar and electric guitar. Tablatures and chords are parodies/interpretations of the original songs. You may use it for private study, scholarship, research or language learning purposes only