» » »

Disconnect The Dots Tabs (ver.1)

Artists:  A B C D E F G H I J K L M N O P Q R S T U V W X Y Z # 

Disconnect The Dots Tabs (ver.1)

Of Montreal
Rating:
0/5 (0 votes)

Tabs too difficult? Try these video lessons and learn fast.
                Of Montreal

**I got this from the album tab, this is not my tab, however the guy that tabbed it out 
a great job because it sounds nearly identical**


F#
Come disconnect the dots with me poppet
Come disconnect the dots
Come disconnect the dots with me poppet
Come disconnect the dots

        C#m7
It's so beautiful
    Bmaj7
Our lunacy
        C#m7
It's so beautiful
E
Ahhh


Come disconnect the dots with me poppet
Come disconnect the dots
Come disconnect the dots with me poppet
Come disconnect the dots

It's so beautiful
Our lunacy
It's so beautiful
Ahhh

(instrumental break)
G#m   D#m/F#  E  Em/G
G#m   D#m/F#  E  Em/G  B  F#

Come disconnect the dots with me poppet
Come disconnect the dots
Come disconnect the dots with me poppet
Come disconnect the dots

It's so beautiful
Our lunacy
It's so beautiful
Ahhh

It's so beautiful
Our lunacy
It's so beautiful
Ahhh

(instrumental break)
G#m   D#m/F#  E  Em/G
G#m   D#m/F#  E  Em/G  B
Em    Emaj7   B

Intro:(0:04)

Guitar(distorted)
e|--------|--------|--------------|-----------------|--------------|
b|--------|--------|--------------|-----------------|--------------|
g|--------|--------|--------------|-----------------|--------------|
d|-4------|----4-5-|-6-6---6-6--8-|-9--9---9--9--11-|-4-4---4-4--5-|
a|-4(hold)|----4-5-|-6-6---6-6--8-|-9--9---9--9--11-|-4-4---4-4--5-|
e|-2------|----2-3-|-4-4---4-4--6-|-7--7---7--7--9--|-2-2---2-2--3-|
   1 2 3 4 1 2 3 4   1   2   3  4   1    2    3  4    1   2   3  4
Keyboard
e|-2------|----2-3-|-6-8---6-8--9-|-9--11--9--11-14-|-7-9---7-9----|
b|-2------|----2-3-|-7-9---7-9--11|-11-12--11-12-14-|-9-11--9-11---|
g|--------|--------|--------------|-----------------|--------------|
d|-4------|----4-5-|-8-10--8-10-11|-11-13--11-13-16-|-9-11--9-11---|
a|--------|--------|--------------|-----------------|--------------|
e|--------|--------|--------------|-----------------|--------------|


e|--------------|-----------------|--------------|--------------|
b|--------------|-----------------|--------------|--------------|
g|--------------|-----------------|--------------|--------------|
d|-6-6---6-6--8-|-9--9---9--9--11-|-4-4---4-4--5-|-6-6---6-6--8-|
a|-6-6---6-6--8-|-9--9---9--9--11-|-4-4---4-4--5-|-6-6---6-6--8-|
e|-4-4---4-4--6-|-7--7---7--7--9--|-2-2---2-2--3-|-4-4---4-4--6-|
   1   2   3  4   1    2    3  4    1   2   3  4   1   2   3  4

e|-6-8---6-8--9-|-9--11--9--11-14-|-7-9---7-9----|-6-8---6-8--9-|
b|-7-9---7-9--11|-11-12--11-12-14-|-9-11--9-11---|-7-9---7-9--11|
g|--------------|-----------------|--------------|--------------|
d|-8-10--8-10-11|-11-13--11-13-16-|-9-11--9-11---|-8-10--8-10-11|
a|--------------|-----------------|--------------|--------------|
e|--------------|-----------------|--------------|--------------|


e|-----------------|--------------|--------------|-----------------|
b|-----------------|--------------|--------------|-----------------|
g|-----------------|--------------|--------------|-----------------|
d|-9--9---9--9--11-|-4-4---4-4--5-|-6-6---6-6--8-|-9--9---9--9--11-|
a|-9--9---9--9--11-|-4-4---4-4--5-|-6-6---6-6--8-|-9--9---9--9--11-|
e|-7--7---7--7--9--|-2-2---2-2--3-|-4-4---4-4--6-|-7--7---7--7--9--|
   1    2    3  4    1   2   3  4   1   2   3  4   1    2    3  4

e|-9--11--9--11-14-|-7-9---7-9----|-6-8---6-8--9-|-9--11--9--11-14(hold)|
b|-11-12--11-12-14-|-9-11--9-11---|-7-9---7-9--11|-11-12--11-12-14------|
g|-----------------|--------------|--------------|----------------------|
d|-11-13--11-13-16-|-9-11--9-11---|-8-10--8-10-11|-11-13--11-13-16------|
a|-----------------|--------------|--------------|----------------------|
e|-----------------|--------------|--------------|----------------------|


Verse(0:26)

Guitar(clean)
   F#
e|-2--------------------------------------|-2---------------------|
b|-2--------------------------------------|-2---------------------|
g|-3--------------------------------------|-3---------------------|
d|-4--------------------------------------|-4---------------------|
a|-4--------------------------------------|-4---------------------|
e|-2--------------------------------------|-2---------------------|
   Come disconnect the dots with me poppet, come disconnect the dots

   F#
e|-2--------------------------------------|-2---------------------|
b|-2--------------------------------------|-2---------------------|
g|-3--------------------------------------|-3---------------------|
d|-4--------------------------------------|-4---------------------|
a|-4--------------------------------------|-4---------------------|
e|-2--------------------------------------|-2---------------------|
   Come disconnect the dots with me poppet, come disconnect the dots


Chorus:(0:40)
          C#m7                Bmaj7
e|------|-4-----------------|-2-----------------------------|
b|------|-5-----------------|-4-----------------------------|
g|------|-4-----------------|-3-----------------------------|
d|------|-6-----------------|-4-----------------------------|
a|------|-4-----------------|-2-----------------------------|
e|------|-------------------|-------------------------------|
  It's so beautiful       Our lunacy                 It's so

   C#m7                 E
e|-4------------------|-4----------------------------|
b|-5------------------|-5----------------------------|
g|-4------------------|-4----------------------------|
d|-6------------------|-6----------------------------|
a|-4------------------|-7----------------------------|
e|--------------------|------------------------------|
   beautiful            Ahhh

Verse(0:54)

Chorus(1:08)

Instrumental:(1:22)


Guitar(same rhythm as verse chords)
   G#m  D#m/F#  E    Em/G G#m  D#m/F#  E    Em/G  B   F#(back to verse)
e|-4----2-------0----0----4----2-------0----0-----2-|-2-----|
b|-4----4-------0----0----4----4-------0----0-----4-|-2-----|
g|-4----3-------1----0----4----3-------1----0-----4-|-3-----|
d|-6----4-------2----2----6----4-------2----2-----4-|-4-----|
a|-6----x-------2----2----6----x-------2----2-----2-|-4-----|
e|-4----2-------0----3----4----2-------0----3-------|-2-----|


Verse(2:04)

Chorus(2:19) x2

Instrumental(2:46)

Alternate ending to instrumental:(3:13)

Guitar
   E   Em/G  B   Em  Emaj7  B
e|-0---0-----2-|-3---4------7-|--------------|
b|-0---0-----4-|-5---4------7-|--------------|
g|-1---0-----4-|-4---4------8-|--------------|
d|-2---2-----4-|-5---6------9-|--------4---5-|
a|-2---2-----2-|-x---x------9-|--------4---5-|
e|-0---3-------|-0---0------7-|--------2---3-|
                                1  2 3   4

Outro:(3:21)

Guitar, keyboard and bass are the same as intro

Second Keyboard:(3:31)                    (repeat till fade)
e|---|.-2s4-----2-|-2s9------|-4s6-----2-|-2s4-------|-2s9---2-|-4s6----.|
b|-4-|.-----------|--------4-|-----------|---------4-|---------|------4-.|
g|---|.-----------|----------|-----------|-----------|---------|--------.|
d|---|.-----------|----------|-----------|-----------|---------|--------.|
a|---|.-----------|----------|-----------|-----------|---------|--------.|
e|---|.-----------|----------|-----------|-----------|---------|--------.|
            
Tabs too difficult? Try these video lessons and learn fast.




comments powered by Disqus
↑ Back to top | Tablatures and chords are parodies/interpretations of the original songs. You may use it for private study, scholarship, research or language learning purposes only