» » »

Coquet Coquet Tabs (ver.1)

Artists:  A B C D E F G H I J K L M N O P Q R S T U V W X Y Z # 

Coquet Coquet Tabs (ver.1)

Of Montreal
Rating:
5/5 (1 vote)
Tabs too difficult? Try these video lessons and learn fast.
                By Of Montreal


New song from Kevin Barnes. Heard the bassline and thought it needed to be tabbed, then 
figure I needed to
tab the rest of this kickass song. I tried to get the intro riff as best as I could but 
played really
messy on the recording so it might not be 100% right. My suggestion is to just get the 
of it and riff

around the G string. Also, this is a long tab. I tried to conserve space as best as 
but also

transcribe every little nuance and variation, but be warned this tab will probably rape 
printer.

Legend:

(5)- Ghost Note: A note in parenthesis that is barely heard in a recording
or represents a note that is supposed to ring for longer than one measure.

B  - Bend (I've placed the fret number of the pitch being bent to next to the note.)

Pb - Pre-Bend: The note is bent to a pre-determined pitch before it is
      picked.

Pbr- Pre-Bend Release: The note is bent to a predetermined pitch before it
is picked and is released to its original pitch.

/  - Slide: If I have to explain this one you shouldn't be playing this
        song.

H  - Hammer-on

Br - Bend-Release: Bend note to a pitch then release it to its original
      Pitch.

Intro:

|-----------------------------------------|----------------------------------------|
|-----------------------------------------|----------------------------------------|
|--8-8-8-8-9-9-9-11-11-11-11-x-8-8-8-9-8--|--8-6-6-8-8-6-6-4-6-4-3-4-3-1--1/////13-|
|-----------------------------------------|----------------------------------------|
|-----------------------------------------|----------------------------------------|
|-----------------------------------------|----------------------------------------|


  Gtr. 1 (overdriven electic) (Doubled by gtr.2 2nd time)

||---3-----3-3---3----3---3--3/1----1-(1)/6-0---||
||-*-3-----3-3---3----3---3--3/1----1-(1)/6-0-*-||
||---3-----3-3---3----3---3--3/2----2-(2)/7-0---||
||---5-----5-5---5----5---5--5/3----3-(3)/8-0---||
||-*-5-----5-5---5----5---5--5/3----3-(3)/8-0-*-||
||---3-----3-3---3----3---3--3/1----1-(1)/6-----||

   Gtrs. 1 and 2                          Gtr. 1

|--3-----3-3---3----3---3--3----------------------|
|--3-----3-3---3----3---3--3----------------------|
|--3-----3-3---3----3---3--3----------------------|
|--5-----5-5---5----5---5--5----------------------|
|--5-----5-5---5----5---5--5----------------------|
|--3-----3-3---3----3---3--3----------------5--6--|

1st Verse:

   Coquet, Coquet, you know I won't forget       How you

[|-------------------------------|-------------------------------|
[|-------------------------------|-------------------------------|
[|-------------------------------|-------------------------------|
[|-------------------------------|-------------------------------|
[|-------------------------------|-------------------------------|
[|-3-----------------------------|-------------------------------|
[
[
[|-------------------------------|-------------------------------|
[|------12-12-10----10-12-10-----|-------12-12--10-----10--------|
[|-10------------------------13--|---10------------13----13--10--|
[|-------------------------------|-------------------------------|

[   kissed me strange to prove you were mythical
[
[|-----10-10----------|-----10-10------12/15-----|
[|-----------10-----8-|------------10------------|
[|--------------------|--------------------------|
[|--8-----------------|-8------------------------|


[   Oh, my Coquet, you used my voice as your ugly vehicle
[
[|----------------------------------|---------------------10/11/12----------|
[|---------------10-----10-----12---|---------------10-10-------------------|
[|---------12-12-----12-----12------|---------12-12-------------------------|
[|--10------------------------------|--10-----------------------------------|


|--3-----3-3---3----3---3--3/1----1-(1)/6-0--------------|
|--3-----3-3---3----3---3--3/1----1-(1)/6-0--------------|
|--3-----3-3---3----3---3--3/2----2-(2)/7-0--------------|
|--5-----5-5---5----5---5--5/3----3-(3)/8-0--------------|
|--5-----5-5---5----5---5--5/3----3-(3)/8-0--------------|
|--3-----3-3---3----3---3--3/1----1-(1)/6----------------|


  Coquet, Coquet, you know I won't forget     How you

[|-------------------------------|-------------------------------|
[|------12-12-10----10-12-10-----|-------12-12--10-----10--------|
[|-10------------------------13--|---10------------13----13--10--|
[|-------------------------------|-------------------------------|

   hurt me twice to prove you were cynical

|-----10-10-----12/15---|-----10-10------12/15-15-------|
|-----------10----------|------------10-----------------|
|-----------------------|-------------------------------|
|--8--------------------|-8-----------------------------|

     Oh, my Coquet, you are the death, you are the

|--------------------------------|-------------------10/12---|
|------------10-------10----12---|------------10-10----------|
|------12-12-------12----12------|------12-12----------------|
|--10----------------------------|--10-----------------------|


Prechorus:

    Pinnacle
    Gtrs.1 and 2
[|--3---------------1---1---1--------6---6---6-------|
[|--3---------------1---1---1--------6---6---6-------|
[|--3---------------2---2---2--------7---7---7-------|
[|--5---------------3---3---3--------8---8---8-------|
[|--5---------------3---3---3--------8---8---8-------|
[|--3---------------1---1---1--------6---6---6-------|
[
[
[|---------------------------------------------------|
[|-------------------------------------------8-------|
[|--10----------------------8------------------------|
[|---------------------------------------------------|

[|--3------3----------1---1---1--------6-----6------6-------|
[|--3------3----------1---1---1--------6-----6------6-------|
[|--3------3----------2---2---2--------7-----7------7-------|
[|--5------5----------3---3---3--------8-----8------8-------|
[|--5------5----------3---3---3--------8-----8------8-------|
[|--3------3----------1---1---1--------6-----6------6-------|
[
[   Gtr.3 w/heavy distortion
[|----------------------------------------------------------|
[|--8------8----------6---6----6-------11----11-----11------|
[|--10b12--10pb12-----8b108b10-8b10----13b15-13pb15-13pb15--|
[|----------------------------------------------------------|
[|----------------------------------------------------------|
[|----------------------------------------------------------|
[
[|----------------------------------------------------------|
[|---------------------------------------------------8------|
[|--10-----10------------------8----------------------------|
[|----------------------------------------------------------|

[|--3-----3---------1-----1------1-----------6-----6------6-------|
[|--3-----3---------1-----1------1-----------6-----6------6-------|
[|--3-----3---------2-----2------2-----------7-----7------7-------|
[|--5-----5---------3-----3------3-----------8-----8------8-------|
[|--5-----5---------3-----3------3-----------8-----8------8-------|
[|--3-----3---------1-----1------1-----------6-----6------6-------|
[
[
[|-16-----16--------14----14-----14----------19----19-----19------|
[|-19b21--19pb21----17b19-17pb19-17pb19------22b24-22pb24-22pb24--|
[|----------------------------------------------------------------|
[|----------------------------------------------------------------|
[|----------------------------------------------------------------|
[|----------------------------------------------------------------|
[
[|----------------------------------------------------------------|
[|--------------------------------------------------------8-------|
[|--10-----10--------------------8--------------------------------|
[|----------------------------------------------------------------|

Chorus:


  1. With you I can only see my black-light constellations
  2. want to catch you with some other guy's face under your
[
[    Gtr.1 w/clean tone
[||--3^-------------------------------|---------------------------------|
[||*-3^-------------------------------|---------------------------------|
[||--3^-------------------------------|---------------------------------|
[||--5^-------------------------------|---------------------------------|
[||*----------------------------------|---------------------------------|
[||-----------------------------------|---------------------------------|
[
[||-----------------------------------|---------------------------------|
[||*----------------------------------|---------------------------------|
[||*----------------------------------|---------------------------------|
[||--3--------3--------3--------3-----|---3--------3--------3-------3---|

                                            and all the other
  eyelids                                   something must be
[|--3^-------------------------------|-----------------------------------|
[|--4^-------------------------------|-----------------------------------|
[|--5^-------------------------------|-----------------------------------|
[|--5^-------------------------------|-----------------------------------|
[|--3^-------------------------------|-----------------------------------|
[|-----------------------------------|-----------------------------------|
[
[|-----------------------------------|-----------------------------------|
[|-----------------------------------|-----------------------------------|
[|-----------------------------------|-----------------------------5-----|
[|--8--------8--------8--------8-----|----8--------8-------8-------------|


   sh*t I don't think I have the language to say
   wrong, you give me emotional artifacts that can find no

[|--6^-------------------------------|---------------------------------|
[|--6^-------------------------------|---------------------10^---------|
[|--7^-------------------------------|---------------------10^---------|
[|--8^-------------------------------|---------------------10^---------|
[|--8^-------------------------------|---------------------8^----------|
[|-----------------------------------|---------------------------------|
[
[|-----------------------------------|---------------------------------|
[|-----------------------------------|---------------------------------|
[|-----------------------------------|---------------------------------|
[|--6--------6--------6--------6-----|---6--------6--------1-------1---|

   purchase

[|----------------------------------|--------------------------------||
[|-7^-------------------------------|------------------------------*-||
[|-7^-------------------------------|--------------------------------||
[|-7^-------------------------------|--------------------------------||
[|-5^-------------------------------|------------------------------*-||
[|----------------------------------|--------------------------------||
[
[  Gtr. 1 (w/ Distortion) (play 2nd time only)
[|----------------------------------|-----------------------------0--||
[|----------------------------------|---------------------------0-0*-||
[|----------------------------------|---------------------------0-0--||
[|----------------------------------|---------------------------0-0--||
[|----------------------------------|---------------------------0--*-||
[|----------------------------------|--------------------------------||
[
[
[|-------------------------------------------------------------------||
[|-----------------------------------------------------------------*-||
[|-5--------5--------5--------5---------5--------5-------5------5--*-||
[|-------------------------------------------------------------------||


  Gtr. 1 (overdriven electic)

||---3-----3-3---3----3---3--3/1----1-(1)/6-0---||
||-*-3-----3-3---3----3---3--3/1----1-(1)/6-0-*-||
||---3-----3-3---3----3---3--3/2----2-(2)/7-0---||
||---5-----5-5---5----5---5--5/3----3-(3)/8-0---||
||-*-5-----5-5---5----5---5--5/3----3-(3)/8-0-*-||
||---3-----3-3---3----3---3--3/1----1-(1)/6-----||

   Gtr. 1
|--3-----3-3---3----3---3--3----------------------|
|--3-----3-3---3----3---3--3----------------------|
|--3-----3-3---3----3---3--3----------------------|
|--5-----5-5---5----5---5--5----------------------|
|--5-----5-5---5----5---5--5----------------------|
|--3-----3-3---3----3---3--3----------------5--6--|


   Coquet,    Coquet,         you know I won't forget

[|-------------------------------|-------------------------------|
[|------12-12-10----10-12-10-----|-------12-12--10-----10--------|
[|-10------------------------13--|---10------------13----13--10--|
[|-------------------------------|-------------------------------|


  How you sold me out to prove you were typical

|-----10-10----------|-----10-10------12/15-----|
|-----------10-----8-|------------10------------|
|--------------------|--------------------------|
|--8-----------------|-8------------------------|

   Oh, my Coquet, you're Herculean, you are so miserable

|--------------------------------|-------------------------------------|
|------------10-------10------12-|------------10-12-/15/16/17----------|
|------12-12-------12-----12-----|------12-12--------------------------|
|--10----------------------------|--10---------------------------------|


|--3-----3-3---3----3---3--3/1----1-(1)/6-0---|
|--3-----3-3---3----3---3--3/1----1-(1)/6-0---|
|--3-----3-3---3----3---3--3/2----2-(2)/7-0---|
|--5-----5-5---5----5---5--5/3----3-(3)/8-0---|
|--5-----5-5---5----5---5--5/3----3-(3)/8-0---|
|--3-----3-3---3----3---3--3/1----1-(1)/6-----|

  Coquet,    Coquet,     you know I won't forget

|-----------------------------|-------------------------------|
|------12-12-10----10-12------|-------12-12--10-----10--------|
|-10---------------------13---|---10------------13----13--10--|
|-----------------------------|-------------------------------|

   How you made me cry to prove I was beautiful

|-----10-10-----12/15---|-----10-10------12/15----------|
|-----------10----------|------------10-----------------|
|-----------------------|-------------------------------|
|--8--------------------|-8-----------------------------|

   Oh, my Coquet, my teenage lust for you is so pitiful

|--------------------------------|-------------------10/12----|
|------------10-------10----12---|------------10-10-----------|
|------12-12-------12----12------|------12-12-----------------|
|--10----------------------------|--10------------------------|

2nd PreChorus:

[   Gtrs. 1 and 2
[|--3---------------1---1---1--------6---6---6-------|
[|--3---------------1---1---1--------6---6---6-------|
[|--3---------------2---2---2--------7---7---7-------|
[|--5---------------3---3---3--------8---8---8-------|
[|--5---------------3---3---3--------8---8---8-------|
[|--3---------------1---1---1--------6---6---6-------|
[
[
[|---------------------------------------------------|
[|-------------------------------------------8-------|
[|--10----------------------8------------------------|
[|---------------------------------------------------|

[
[|--3------3----------1---1---1--------6-----6------6-------|
[|--3------3----------1---1---1--------6-----6------6-------|
[|--3------3----------2---2---2--------7-----7------7-------|
[|--5------5----------3---3---3--------8-----8------8-------|
[|--5------5----------3---3---3--------8-----8------8-------|
[|--3------3----------1---1---1--------6-----6------6-------|
[
[   Gtr. 3 w/ heavy distortion
[|----------------------------------------------------------|
[|--8------8----------6---6----6-------11----11-----11------|
[|--10b12--10pb12-----8b108b10-8b10----13b15-13pb15-13pb15--|
[|----------------------------------------------------------|
[|----------------------------------------------------------|
[|----------------------------------------------------------|
[
[|----------------------------------------------------------|
[|---------------------------------------------------8------|
[|--10-----10------------------8----------------------------|
[|----------------------------------------------------------|

[|--3-----3---------1-----1------1-----------6-----6------6-------|
[|--3-----3---------1-----1------1-----------6-----6------6-------|
[|--3-----3---------2-----2------2-----------7-----7------7-------|
[|--5-----3---------3-----3------3-----------8-----8------8-------|
[|--5-----5---------3-----3------3-----------8-----8------8-------|
[|--3-----3---------1-----1------1-----------6-----6------6-------|
[
[|-16-----16--------14----14-----14----------19----19-----19------|
[|-19b21--19pb21----17b19-17pb19-17pb19------22b24-22pb24-22pb24--|
[|----------------------------------------------------------------|
[|----------------------------------------------------------------|
[|----------------------------------------------------------------|
[|----------------------------------------------------------------|
[
[|----------------------------------------------------------------|
[|--------------------------------------------------------8-------|
[|--10-----10--------------------8--------------------------------|
[|----------------------------------------------------------------|


2nd Chorus:

  1. With you I can only see my black-light constellations
  2. want to catch you with some other guy's face under your
  3,4,5,6 (Instrumental)

[||--3^-------------------------------|---------------------------------|
[||*-3^-------------------------------|---------------------------------|
[||--3^-------------------------------|---------------------------------|
[||--5^-------------------------------|---------------------------------|
[||*----------------------------------|---------------------------------|
[||-----------------------------------|---------------------------------|
[
[
[||--3--------3--------3--------3-----|---3--------3--------3-------3---|
[||--3--------3--------3--------3-----|---3--------3--------3-------3---|
[||-----------------------------------|---------------------------------|
[||-----------------------------------|---------------------------------|
[||-----------------------------------|---------------------------------|
[||-----------------------------------|---------------------------------|
[
[
[||-----------------------------------|---------------------------------|
[||*----------------------------------|---------------------------------|
[||*----------------------------------|---------------------------------|
[||--3--------3--------3--------3-----|---3--------3--------3-------3---|
[
[  Note:
[  On one of the instrumental repeats
[  Kevin plays the low G on the bass
[  in a higher register at the 10th
[  fret of the A string.


                                            and all the other
  eyelids                                   something must be

[|--3^-------------------------------|-----------------------------------|
[|--4^-------------------------------|-----------------------------------|
[|--5^-------------------------------|-----------------------------------|
[|--5^-------------------------------|-----------------------------------|
[|--3^-------------------------------|-----------------------------------|
[|-----------------------------------|-----------------------------------|
[
[
[
[||-8---------8--------8--------8----|----8--------8-------8-------10----|
[||-8---------8--------8--------8----|----8--------8-------8-------10----|
[||----------------------------------|-----------------------------------|
[||----------------------------------|-----------------------------------|
[||----------------------------------|-----------------------------------|
[||----------------------------------|-----------------------------------|
[
[|-----------------------------------|-----------------------------------|
[|-----------------------------------|-----------------------------------|
[|-----------------------------------|-----------------------------5-----|
[|--8--------8--------8--------8-----|----8--------8-------8-------------|


   sh*t I don't think I have the language to say
   wrong, you give me emotional artifacts that can find no

[|--6^-------------------------------|---------------------------------|
[|--6^-------------------------------|---------------------10^---------|
[|--7^-------------------------------|---------------------10^---------|
[|--8^-------------------------------|---------------------10^---------|
[|--8^-------------------------------|---------------------8^----------|
[|-----------------------------------|---------------------------------|
[
[
[||----------------------------------|---------------------------------|
[||-6--------6--------6--------6-----|---6--------6--------6-------6---|
[||-7--------7--------7--------7-----|---7--------7--------5-------5---|
[||----------------------------------|---------------------------------|
[||----------------------------------|---------------------------------|
[||----------------------------------|---------------------------------|
[
[
[|-----------------------------------|---------------------------------|
[|-----------------------------------|---------------------------------|
[|-----------------------------------|---------------------------------|
[|--6--------6--------6--------6-----|---6--------6--------1-------1---|

   purchase

[|----------------------------------|--------------------------------||
[|-7^-------------------------------|------------------------------*-||
[|-7^-------------------------------|--------------------------------|| X 6
[|-7^-------------------------------|--------------------------------||
[|-5^-------------------------------|------------------------------*-||
[|----------------------------------|--------------------------------||
[
[
[|----------------------------------|--------------------------------||
[|/10-------10-------10-------10----|---10------10------10-----10--*-||
[|/11-------11-------11-------11----|---11------11------11-----11----||
[|----------------------------------|--------------------------------||
[|----------------------------------|------------------------------*-||
[|----------------------------------|--------------------------------||
[
[
[|----------------------------------|--------------------------------||
[|----------------------------------|------------------------------*-||
[|-5--------5--------5--------5-----|---5--------5-------5------5--*-||
[|----------------------------------|--------------------------------||



|-----------------------------------|-----------------------------------|
|-----------------------------------|-----------------------------------|
|--10-----10------10-------10-------|----10------10------10------10-----|
|-----------------------------------|-----------------------------------|


|-----------------------------------|-----------------------------------|
|-----------------------------------|-----------------------------------|
|--10-------------------------------|-----------------------------------|
|-----------------------------------|-----------------------------------|
            
Tabs too difficult? Try these video lessons and learn fast.


comments powered by Disqus
↑ Back to top | Tablatures and chords are parodies/interpretations of the original songs. You may use it for private study, scholarship, research or language learning purposes only