» » »

Of Montreal, A Sentence Of Sorts In Kongsvinger Bass tabs (ver.1)

Artists:  A B C D E F G H I J K L M N O P Q R S T U V W X Y Z # 

A Sentence Of Sorts In Kongsvinger Bass tabs (ver.1)

Of Montreal Tabs
 Rating:
3.6/5 (5 votes)
A Sentence Of Sorts In Kongsvinger lessons Tabs too difficult? Try these video lessons and learn fast
1
                -------------------------------------------------------------------------------
-------------------------------------------------------------------------------

If you know the song, this should be a breeze.  
Tuning: Standard

0:00
E---------|
A-8\------|
D---------|
G---------|

INTRO
0:21
E----------------|
A-3-3------------|
D--------3-3-----|
G----5-5----0-3--|
          x4
E-----------------|----------------|---------------------|------------------|
A--------0-0-1-3--|--------0-0-1-3-|-3-3-3---------------|-3-3-3------------|
D-3-3-3-----------|3-3-3-----------|-------------3-3-----|-----------3-3----|
G-----------------|----------------|-------5-5-------0-3-|------5-5-----0-3-|
                                                    x4
VERSE
E---------|---------|---------|---------|---------|---------|---------|
A---------|---------|-3-------|---------|-4-------|---------|---------|
D---------|---3-2-0-|---2-----|-----3-3-|---3--—3-|---3-----|---3---3-|
G-7-5-4-2-|-0-------|-----0-5-|-2—2-----|-----1---|-2---6-1-|-1---1---|

E---------|---------|---------|--------|---------------------|---------------------|
A---------|---------|-3-------|--------|---------------------|---------------------|
D---------|---3-2-0-|---2-----|----3-3-|---------------------|---------------------|
G-7-5-4-2-|-0-------|-----0-5-|-2—2----|-0h4p0h4p0h4p0h4-5-7-|-2h5p2h5p2h5p2h5-5-9-|

E---------------------|
A---------------------|
D---------------------|
G-0h4p0h4p0h4p0h4-5-7-|

CHORUS
E----------------|----------------|---------------------|------------------|
A--------0-0-1-3-|--------0-0-1-3-|-3-3-3---------------|-3-3-3------------|
D-3-3-3----------|-3-3-3----------|------------3-3------|-----------3-3----|
G----------------|----------------|-------5-5-------0-3-|------5-5-----0-3-|
                                                  x4
VERSE
E---------|---------|---------|---------|---------|---------|---------|
A---------|---------|-3-------|---------|-4-------|---------|---------|
D---------|---3-2-0-|---2-----|-----3-3-|---3--—3-|---3-----|---3---3-|
G-7-5-4-2-|-0-------|-----0-5-|-2—2-----|-----1---|-2---6-1-|-1---1---|

E---------|---------|---------|--------|---------------------|---------------------|
A---------|---------|-3-------|--------|---------------------|---------------------|
D---------|---3-2-0-|---2-----|----3-3-|---------------------|---------------------|
G-7-5-4-2-|-0-------|-----0-5-|-2—2----|-0h4p0h4p0h4p0h4-5-7-|-2h5p2h5p2h5p2h5-5-9-|

E---------------------|
A---------------------|
D---------------------|
G-0h4p0h4p0h4p0h4-5-7-|

CHORUS
E----------------|----------------|---------------------|------------------|
A--------0-0-1-3-|--------0-0-1-3-|-3-3-3---------------|-3-3-3------------|
D-3-3-3----------|-3-3-3----------|------------3-3------|-----------3-3----|
G----------------|----------------|-------5-5-------0-3-|------5-5-----0-3-|
                                                  x4
BRIDGE
E-10\----|
A--------|
D--------|
G--------|

CHORUS
E----------------|----------------|---------------------|------------------|
A--------0-0-1-3-|--------0-0-1-3-|-3-3-3---------------|-3-3-3------------|
D-3-3-3----------|-3-3-3----------|------------3-3------|-----------3-3----|
G----------------|----------------|-------5-5-------0-3-|------5-5-----0-3-|
                                                  x4
OUTRO
E----------------|----------------|---------------------|------------------|
A--------0-0-1-3-|--------0-0-1-3-|-3-3-3---------------|-3-3-3------------|
D-3-3-3----------|-3-3-3----------|------------3-3------|-----------3-3----|
G----------------|----------------|-------5-5-------0-3-|------5-5-----0-3-|
                                                  x3
E------|
A-8\---|
D------|
G------|

| /  slide up
| \  slide down
| h  hammer-on
| p  pull-off
| ~  vibrato
| +  harmonic
| x  Mute note
            
Submit corrections

comments powered by Disqus
↑ Back to top | Of Montreal Bass for A Sentence Of Sorts In Kongsvinger. Lyrics for acoustic guitar and electric guitar. 1 Tablatures and chords are parodies/interpretations of the original songs. You may use it for private study, scholarship, research or language learning purposes only