>
 >
A Sentence Of Sorts In Kongsvinger

A Sentence Of Sorts In Kongsvinger Bass Tabs

Of Montreal - A Sentence Of Sorts In Kongsvinger chords, tabs, tablatures, lyrics

Guitar lessons | Add/correct | Request | Top 50 tabs Artists:  A B C D E F G H I J K L M N O P Q R S T U V W X Y Z 0-9

A Sentence Of Sorts In Kongsvinger Bass Tabs – Of Montreal

CD, Sheet music, Poster

Do you like A Sentence Of Sorts In Kongsvinger? Share with your friends now
Bass TabsBass Tabs v2ChordsUkulele
-------------------------------------------------------------------------------
-------------------------------------------------------------------------------

If you know the song, this should be a breeze.  
Tuning: Standard

0:00
E---------|
A-8\------|
D---------|
G---------|

INTRO
0:21
E----------------|
A-3-3------------|
D--------3-3-----|
G----5-5----0-3--|
          x4
E-----------------|----------------|---------------------|------------------|
A--------0-0-1-3--|--------0-0-1-3-|-3-3-3---------------|-3-3-3------------|
D-3-3-3-----------|3-3-3-----------|-------------3-3-----|-----------3-3----|
G-----------------|----------------|-------5-5-------0-3-|------5-5-----0-3-|
                                                    x4
VERSE
E---------|---------|---------|---------|---------|---------|---------|
A---------|---------|-3-------|---------|-4-------|---------|---------|
D---------|---3-2-0-|---2-----|-----3-3-|---3--3-|---3-----|---3---3-|
G-7-5-4-2-|-0-------|-----0-5-|-22-----|-----1---|-2---6-1-|-1---1---|

E---------|---------|---------|--------|---------------------|---------------------|
A---------|---------|-3-------|--------|---------------------|---------------------|
D---------|---3-2-0-|---2-----|----3-3-|---------------------|---------------------|
G-7-5-4-2-|-0-------|-----0-5-|-22----|-0h4p0h4p0h4p0h4-5-7-|-2h5p2h5p2h5p2h5-5-9-|

E---------------------|
A---------------------|
D---------------------|
G-0h4p0h4p0h4p0h4-5-7-|

CHORUS
E----------------|----------------|---------------------|------------------|
A--------0-0-1-3-|--------0-0-1-3-|-3-3-3---------------|-3-3-3------------|
D-3-3-3----------|-3-3-3----------|------------3-3------|-----------3-3----|
G----------------|----------------|-------5-5-------0-3-|------5-5-----0-3-|
                                                  x4
VERSE
E---------|---------|---------|---------|---------|---------|---------|
A---------|---------|-3-------|---------|-4-------|---------|---------|
D---------|---3-2-0-|---2-----|-----3-3-|---3--3-|---3-----|---3---3-|
G-7-5-4-2-|-0-------|-----0-5-|-22-----|-----1---|-2---6-1-|-1---1---|

E---------|---------|---------|--------|---------------------|---------------------|
A---------|---------|-3-------|--------|---------------------|---------------------|
D---------|---3-2-0-|---2-----|----3-3-|---------------------|---------------------|
G-7-5-4-2-|-0-------|-----0-5-|-22----|-0h4p0h4p0h4p0h4-5-7-|-2h5p2h5p2h5p2h5-5-9-|

E---------------------|
A---------------------|
D---------------------|
G-0h4p0h4p0h4p0h4-5-7-|

CHORUS
E----------------|----------------|---------------------|------------------|
A--------0-0-1-3-|--------0-0-1-3-|-3-3-3---------------|-3-3-3------------|
D-3-3-3----------|-3-3-3----------|------------3-3------|-----------3-3----|
G----------------|----------------|-------5-5-------0-3-|------5-5-----0-3-|
                                                  x4
BRIDGE
E-10\----|
A--------|
D--------|
G--------|

CHORUS
E----------------|----------------|---------------------|------------------|
A--------0-0-1-3-|--------0-0-1-3-|-3-3-3---------------|-3-3-3------------|
D-3-3-3----------|-3-3-3----------|------------3-3------|-----------3-3----|
G----------------|----------------|-------5-5-------0-3-|------5-5-----0-3-|
                                                  x4
OUTRO
E----------------|----------------|---------------------|------------------|
A--------0-0-1-3-|--------0-0-1-3-|-3-3-3---------------|-3-3-3------------|
D-3-3-3----------|-3-3-3----------|------------3-3------|-----------3-3----|
G----------------|----------------|-------5-5-------0-3-|------5-5-----0-3-|
                                                  x3
E------|
A-8\---|
D------|
G------|

| /  slide up
| \  slide down
| h  hammer-on
| p  pull-off
| ~  vibrato
| +  harmonic
| x  Mute note





Comments


Popular Of Montreal tabs & chords
Gallery Piece Bass Tabs
Bunny Aint No Kind Of Rider Chords
Dont Ask You To Explain Chords
Feminine Effect Chords
Wraith Pinned To The Mist And Other Games 1 Chords
Coquet Coquet Tabs
Death Is Not A Parallel Move Tabs
Labyrinthian Pomp Tabs
Sink The Seine Tabs
Tim I Wish You Were Born A Girl Ukulele


Song lyrics



↑ Back to top | Tablatures and chords are parodies/interpretations of the original songs. You may use it for private study, scholarship, research or language learning purposes only
© 2014 AZChords.com Contact us | Privacy policy | DMCA | Add/correct tabs | Request tabs | Top 50 tabs