>
 >
YDG!?

YDG!? Guitar Tabs

Of Mice And Men - YDG!? chords, tabs, tablatures, lyrics

Guitar lessons | Add/correct | Request | Top 50 tabs Artists:  A B C D E F G H I J K L M N O P Q R S T U V W X Y Z 0-9

YDG!? Guitar Tabs – Of Mice And Men

CD, Sheet music, Poster

Do you like YDG!?? Share with your friends now
Tabs
			     YDG?! Ė Of Mice & Men
 INTRO both gtrs
|----------------------------------------|
|---6666---6-6-6-6-6-6---6666------------|
|---9999---9-9-9-9-9-9---9999------------|
|-0------0-------------0------0--3--7----|
|-0------0-------------0------0-03-07----|
|-0------0-------------0------0-03-07----|
                                .  .
|----------------------------------------|
|---6666---6666-------6666---------------|
|---9999---9999-------9999---------------|
|-0------0-------00-00-----0--3--7-------|
|-0------0------000-00-----0-03-07-------|  (4x)
|-0------0------000-00-----0-03-07-------|
                .            .  .

 Gtr. 1
|------------------------|
|-6-6-6-6-6-6-6-6-6-6----|
|-9-9-9-9-9-9-9-9-9-9----|
|------------------------|
|------------------------| (5x)
|------------------------|

 Gtr. 2
|------------------------|
|------------------------|
|------------------------|
|------------------3-7-0-|
|-00-0-0--000-000--3-7-0-| (4x)
|-00-0-0--000-000--3-7-0-|
  .. . .  ... ...
 Then both guitars play the 2nd guitar part 4 times

 Gtr. 1
|----------------------------------------------|
|----------------------------------------------|
|----------------------------------------------|
|-0~-------------------0~----------------------|
|-0~-------------------0~----------------------|
|-0~-------------------0~----------------------|

 Gtr. 2
|----------------------------------------------|
|----------------------------------------------|
|-7-10-14-12-9-5-7~----7-10-12-14-12-17--14~---|
|----------------------------------------------|
|-5-8--12-10-7-3-5~----5-8--10-12-10-15--12~---| <==== not 100% sure if that
|----------------------------------------------|    is in there, but it fits.

 Gtr. 2
|----------|----------------------------------------------------------------|
|----------|-------------------------------------------------|
|----------|-------------------------------------------------|
|----------|-------------------------------------------3--7--|
|-0-0--0-0-|-3p0-3h5p0-5h7p0-7h8p0-8h10h12--3p0-3h5p0-03-07--| (4x)
|-0-0--0-0-|------------------------------------------03-07--|
  . .  . .                                            .  .

 Gtr. 2
|----------|---------------------------------|
|----------|---------------------------------|
|----------|---------------------------------|     *on the third time of this part
|----------|---------------------------3-07--|      the pattern changes but i didnít
|-0-0--0-0-|-0-0--0-00--00000-0--0000-03-07--| (4x) feel like tabbing it. itís easy 
|-0-0--0-0-|-0-0--0-00--00000-0--0000-03-07--|      enough to figure out.
  . .  . .   . .  . ..  ..... .  .... .  .

 CHORUS
 Gtr. 1
|----------------------------------------|
|----------------------------------------|
|----------------------------------------|
|-77777777-55555555-00000000-33333333----|
|-77777777-55555555-00000000-33333333----| (4x)
|-77777777-55555555-00000000-33333333----|
   .        .        .        .
 Gtr. 2
|----------------------------------------|
|----------------------------------------|
|-14------12------11------12-------------|
|----(8x)----(8x)----(8x)----(8x)--------|
|-12------10------9-------10-------------| (2x)
|----------------------------------------|

|---------------------------------------------------------------------------|
|-22222222222222222020202020202020-19-15-----------17-18-15~----------------|
|----------------------------------------17~-17-19-----------17-19brb-------|
|---------------------------------------------------------------------------|
|---------------------------------------------------------------------------|
|---------------------------------------------------------------------------|

 BREAKDOWN both gtrs
|----------------------------|
|----------------------------|
|----------------------------|
|----------------------------|
|-33333-33333-33333-33333----|
|-33333-33333-33333-33333----|

|---------------------------------------------------|
|---------------------------------------------------|
|---------------------------------------------------|
|---------------------------------------------------|
|-00000-00000-00000-00000-00000-00000---0003*b00----|
|-00000-00000-00000-00000-00000-00000---000---00----|



|--------------------|--------------------------------------------------|
|--------------------|-------------6-6-6-6-6-6--------------------------|
|--------------------|-------------9-9-9-9-9-9--------------------------|
|-----0~----------0~-|-----0~----------------------0~-------------5p0-3-|
|-00000~------00000~-|-00000~-8h7h0------------00000~------0-8h7p0------|(4x)
|-00000~------00000~-|-00000~------------------00000~-10h870------------|
  ....        ....       ....                    ....        .
 Gtr. 1
|------------------------------------------------------------------|
|------------------------------------------------------------------|
|------------------------------------------------------------------|
|------------------------------------------------------------------|
|-000000-00-00-00-00-00-00000000-000000-00-00-00-00-00-00000000----| (4x)
|-000000-00-00-00-00-00-00000000-000000-00-00-00-00-00-00000000----|
  ...... .. .. .. .. .. ........ ...... .. .. .. .. .. ........
 Gtr. 2
|-------------------------------------------------------|
|-------------------------------------------------------|
|-------------------------------------------------------|
|-------------------------------------------------------|
|-5p08p07p05p08p07p05p08p07p05p08p07p08h7-10h8-10h12----| (4x)
|-------------------------------------------------------|

 ENDING
|-------------|
|-------------|
|-------------|
|-0---0---0~--|
|-0---0---0~--|
|-0---0---0~--|

Please comment/rate

************************************

| /   slide up
| \   slide down
| h   hammer-on
| p   pull-off
| ~   vibrato
| *   harmonic
| .   Mute note
| b   Bend
| brb Bend release bend

************************************





Comments


Popular Of Mice And Men tabs & chords
Still Ydgn Bass Tabs
My Understandings Chords
Second And Sebring Chords
Im A Monster Tabs
Let Live 1 Tabs
My Understandings 2 Tabs
The Calm Tabs
Westbound And Down Tabs
When You Cant Sleep At Night Tabs
When You Cant Sleep At Night 4 Tabs


Song lyrics



↑ Back to top | Tablatures and chords are parodies/interpretations of the original songs. You may use it for private study, scholarship, research or language learning purposes only
© 2014 AZChords.com Contact us | Privacy policy | DMCA | Add/correct tabs | Request tabs | Top 50 tabs