>
 >
Westbound And Down

Westbound And Down Guitar Tabs

Of Mice And Men - Westbound And Down chords, tabs, tablatures, lyrics

Guitar lessons | Add/correct | Request | Top 50 tabs Artists:  A B C D E F G H I J K L M N O P Q R S T U V W X Y Z 0-9

Westbound And Down Guitar Tabs – Of Mice And Men

CD, Sheet music, Poster

Do you like Westbound And Down? Share with your friends now
Bass TabsBass Tabs v2Tabs
Of Mice & Men
"Westbound & Down"
Of Mice & Men (2010)

Tuning Drop C# (C# G# C# F# A# D#)

Legend:
x-mute note
#-natural harmonic
~-let note ring
h-hammer on
p-pull off
\-slide up
/-slide down
.-palm mute



|Gtr 1. 
|
|(x2)             |(1st end)        |(2nd end) 
|-3------------xx-|-3----------xxxx-|-3-------|
|-3------------xx-|-3----------xxxx-|-3-------|
|-3------------xx-|-3----------xxxx-|-3-------|
|-1-0-1-00-1-0-xx-|-1-0-1-00-1-xxxx-|-1-0-1-0-|
|---0-1-00-1-0-xx-|---0-1-00-1-xxxx-|---0-1-0-|
|---0-1-00-1-0-xx-|---0-1-00-1-xxxx-|---0-1-0-|
|
|Gtr 2.
| 
|------|
|------|
|------|
|------|
|------|
|-15#~-|

|Both Gtrs. 
|
|(x4)          |(1,3 end)|(2,4 end)
|-3------------|---------|--------|
|-3------------|---------|--------|
|-3------------|---------|--------|
|-1-0-1-00-1-0-|---------|--------|
|---0-1-00-1-0-|---------|--------|
|---0-1-00-1-0-|-0h3h5h7-|-12\\\\-|

|Gtr. 1
|
|(x3)             |(play last time)
|-3------------xx-|-3------------------|
|-3------------xx-|-3------------------|
|-3------------xx-|-3------------------|
|-1-0-1-00-1-0-xx-|-1-0-1-00-1-0-------|
|---0-1-00-1-0-xx-|---0-1-00-1-0-------|
|---0-1-00-1-0-xx-|---0-1-00-1-0-12\\\-|
|
|Gtr. 2
|
|(strum each x16)
|-----------------|
|-----------------|
|--12--14--15--14-|
|---x---x---x---x-|
|--10--12--13--12-|
|-----------------|

|Both Gtrs.
|
|(x2)
|---------------------------|---------------------------|
|---------------------------|---------------------------|
|---------------------------|---------------------------|
|---------------------------|---------------------------|
|---------------------------|---------------------------|
|-0-3-5-0-3-5-0-3-5-0-3-8-5-|-0-3-5-0-3-5-0-3-5-0-3-1-1-|
|
|(x2)                    |(1st end)               |(2nd end)
|-------------xxxxxx-----|-------------xxxxxx-----|-------------xx---------|
|-------------xxxxxx-----|-------------xxxxxx-----|-------------xx---------|
|-------------xxxxxx-----|-------------xxxxxx-----|-------------xx---------|
|-------------xxxxxx-8-5-|-------------xxxxxx-1-1-|-------------xx-8-5-3h5-|
|-------------xxxxxx-8-5-|-------------xxxxxx-1-1-|-------------xx-8-5-3h5-|
|-0-3-5-0-3-5-xxxxxx-8-5-|-0-3-5-0-3-5-xxxxxx-1-1-|-0-3-5-0-3-5-xx-8-5-3h5-|

|Gtr. 1
|
|(x2)
|--------------------------|
|--------------------------|
|--------------------------|
|-5\\\--5-5\\\--------1-1--|
|-5\\\--5-5\\\--------1-1--|
|-5\\\--5-5\\\--5p0-0-1-1--|
|
|Gtr. 2
|
|(x2)
|---------------------------|---------------------------|
|---------------------------|---------------------------|
|---------------------------|---------------------------|
|---------------------------|---------------------------|
|---------------------------|---------------------------|
|-0-3-5-0-3-5-0-3-5-0-3-8-5-|-0-3-5-0-3-5-0-3-5-0-3-1-1-|

|Gtr. 1
|
|(x2)
|------------------------|
|------------------------|
|(x14)---(x16)(x16)(x16)-|
|--1--3-3--5----8----3---|
|--1--3-3--5----8----3---|
|--1--3-3--5----8----3---|
|
|Gtr. 2
|
|(x2)
|--------------------(x3)-----------------------|
|-----------------------------------------------|
|-12-14-15-14p12--------14p12-------14p12-------|
|----------------15p12--------15p12-------15p12-|
|-----------------------------------------------|
|-----------------------------------------------|
|(not too sure about this last part)
|----------------------------------|
|----------------------------------|
|-12121212-14141414-15151515-19\\\-|
|----------------------------------|
|----------------------------------|
|----------------------------------|


|Both Gtrs.
|
|(x4)                                   |(1,2,3 end) |(4th end)
|---------------------------------------|------------|----------|
|---------------------------------------|------------|----------|
|---------------------------------------|------------|----------|
|-0-1-0-1-------0-1-0-3-1-0--1-0-1------|------------|----------|
|-0-1-0-1-0-00--0-1-0-3-1-0--1-0-1-0-00-|-0-00--0-00-|-33333333-|
|-0-1-0-1-0-00--0-1-0-3-1-0--1-0-1-0-00-|-0-00--0-00-|-33333333-|
          . ..                     . ..   . ..  . ..   ........   

|Gtr. 1
|
|(x2)
|----------------------------------------------|
|----------------------------------------------| 
|----------------------------------------------|
|-5~-7~-8~--5-0-1-00-1-0----------5-0-1-00-1-0-|
|-5~-7~-8~--5-0-1-00-1-0----------5-0-1-00-1-0-|
|-5~-7~-8~--5-0-1-00-1-0-0h3h5h7--5-0-1-00-1-0-|
|
|Gtr. 2
|(x2)
|-----------------------------------------------|
|-----------------------------------------------|
|-12~-14~-15~-----------------------------------|
|--x---x---x--5-0-1-00-1-0---------5-0-1-00-1-0-|
|-10~-12~-13~-5-0-1-00-1-0---------5-0-1-00-1-0-|
|-------------5-0-1-00-1-0-0h3h5h7-5-0-1-00-1-0-|

|Gtr. 1
|
|-3--------------------3------------|
|-3--------------------3------------|
|-3--------------------3------------|
|-1-0-1-00-1-0---------1-0-1-00-1-0-|
|---0-1-00-1-0-----------0-1-00-1-0-|
|---0-1-00-1-0-0h3h5h7---0-1-00-1-0-|
|
|Gtr. 2
|
|(strum each x16)
|-------|
|-------|
|-12-14-|
|--x--x-|
|-10-12-|
|-------|

|Gtr. 1
|
|(x2)
|------------------------|
|------------------------|
|(x14)---(x16)(x16)(x16)-|
|--1--3-3--5----8----3---|
|--1--3-3--5----8----3---|
|--1--3-3--5----8----3---|
|
|Gtr. 2
|
|(x2)
|--------------------(x3)-----------------------|
|-----------------------------------------------|
|-12-14-15-14p12--------14p12-------14p12-------|
|----------------15p12--------15p12-------15p12-|
|-----------------------------------------------|
|-----------------------------------------------|

|----------------------------------|
|----------------------------------|
|-12121212-14141414-15151515-19\\\-|
|----------------------------------|
|----------------------------------|
|----------------------------------|

|Both Gtrs.
|(x4)
|----------------------------------------|
|---4-------4------------4---------------|
|---7-------7------------7---------------|
|-------------------1--------------1-1-1-|
|-0-----------------1--0---------0-1-1-1-|
|-0---8p5p0---8p5p0-1--0---8p5p0-0-1-1-1-|
  .                    .         .

|Gtr. 1
|(x2)
|----------------------------------------|
|---4-------4------------4---------------|
|---7-------7------------7---------------|
|-------------------1--------------1-1-1-|
|-0-----------------1--0---------0-1-1-1-|
|-0---8p5p0---8p5p0-1--0---8p5p0-0-1-1-1-|
| .                    .         .
|
|Gtr. 2
|(x4)
|-------5-----|
|---4-----4---|
|-7---7-----7-|
|-------------|
|-------------|
|-------------|

|Both Gtrs.
|(x2)
|---------------------------|---------------------------|
|---------------------------|---------------------------|
|---------------------------|---------------------------|
|-----------------------8-5-|-----------------------1-1-|
|-----------------------8-5-|-----------------------1-1-|
|-0-3-5-0-3-5-0-3-5-0-3-8-5-|-0-3-5-0-3-5-0-3-5-0-3-1-1-|

 
|Gtr. 1
|------------------------|----------|
|------------------------|----------|
|(x14)---(x16)(x16)(x16)-|----------|
|--1--3-3--5----8----3---|-1-3-5\\\-|
|--1--3-3--5----8----3---|-1-3-5\\\-|
|--1--3-3--5----8----3---|-1-3-5\\\-|
|
|Gtr. 2
|
|(x2)
|--------------------(x3)-----------------------|
|-----------------------------------------------|
|-12-14-15-14p12--------14p12-------14p12-------|
|----------------15p12--------15p12-------15p12-|
|-----------------------------------------------|
|-----------------------------------------------|
|
|----------------------------------------|
|----------------------------------------|
|-12121212-14141414-15151515-15-17-19\\\-|
|----------------------------------------|
|----------------------------------------|
|----------------------------------------|





Comments


Popular Of Mice And Men tabs & chords
Og Loko Bass Tabs
Westbound And Down 2 Bass Tabs
Let Live Tabs
Let Live 1 Tabs
Product Of A Murder Tabs
Still Ydgn Tabs
The Ballad Of Tony Clayton And The Rawding Millionaire Tabs
When You Cant Sleep At Night Tabs
When You Cant Sleep At Night 3 Tabs
Youre Not Alone Tabs


Song lyrics



↑ Back to top | Tablatures and chords are parodies/interpretations of the original songs. You may use it for private study, scholarship, research or language learning purposes only
© 2014 AZChords.com Contact us | Privacy policy | DMCA | Add/correct tabs | Request tabs | Top 50 tabs