>
 >
The Great Hendowski

The Great Hendowski Guitar Tabs

Of Mice And Men - The Great Hendowski chords, tabs, tablatures, lyrics

Guitar lessons | Add/correct | Request | Top 50 tabs Artists:  A B C D E F G H I J K L M N O P Q R S T U V W X Y Z 0-9

The Great Hendowski Guitar Tabs – Of Mice And Men

CD, Sheet music, Poster

Do you like The Great Hendowski? Share with your friends now
Tabs
--------------------------------------------------------------------
                The Great Hendowski - Of Mice & Men
--------------------------------------------------------------------

Tuning: Drop C

Intro/verse
D|---------------------------------------------|
A|---------------------------------------------|
F|---------------------------------------------|
C|--------------------------------7------------|
G|---0-0h7---8\5---0h7----8\5-5/8--------------|
C|---0-----00----0-----00----------------------|
           ..    .     ..
D|---------------------------------------------|
A|---------------------------------------------|
F|---------------------------------------------|
C|----------------------------555555-----------|
G|---0-0h7---8\5---0h7----8\5-777777-----------|
C|---0-----00----0-----00----------------------|
           ..    .     ..
---------------------------------------------------------------------------
0:29
verse (part 2)     Play x2

D|------------------------------------|
A|----6\\\----------------------------|
F|---10\\\----------------------------|x3
C|------------------------------------|
G|----------0-0-----------------------|
C|----------0-0----0-5-7-8------------|
            .
0:38
D|---------------------------------------------|
A|---6-6---------------------------------------|
F|---9-9---------------------------------------|
C|-------10-10--7-7--10-10---------------------|
G|-------8--8---5-5--8--8----------------------|
C|---------------------------------------------|

---------------------------------------------------------------------------
0:52   Pre-chorus

D|-----------------------------------------------|
A|---66-------------------66---------------------|
F|---99-------------------99---------------------|
C|-------10-10-----------------------------------|
G|-------8--8--8888888888----55-5555555555-------|
C|-------------8888888888----55-5555555555-------|
               ..........       ..........

D|-----------------------------------------------|
A|---66-------------------66---------------------|
F|---99-------------------99---------------------|
C|-------10-10-----------------------------------|
G|-------8--8--8888888888----55-5555555555-------|
C|-------------8888888888----55-5555555555-------|
               ..........       ....
1:02 Lead
D|-----------------------------------------|
A|-----------------------------------------|
F|---101010/121212/141414141414------------|
C|---x-x-x--x-x-x--x-x-x-x-x-x-------------|
G|---8-8-8-/101010/121212121212------------|
C|-----------------------------------------|

---------------------------------------------------------------------------
1:05
Chorus

Rythem   play x4
D|---------------------------------------------|
A|---------------------------------------------|
F|---------------------------------------------|
C|---------------------------------------------|
G|----8888888888888888-555555555555-33---------|
C|----8888888888888888-555555555555-33---------|
Lead
       "you're too young..."
D|------------------------------------------------------------|
A|---1313-----1313----1313----1313----1010--1010--1010--88----|
F|-------1212-----1212----1212----1212----77----77----77------|
C|------------------------------------------------------------|
G|------------------------------------------------------------|
C|------------------------------------------------------------|
  "just close your eyes and see..."
D|-----------------------------------|
A|---13---10---13--------------------|
F|---12---7----12--------------------|
C|-----------------------------------|
G|-----------------------------------|
C|-----------------------------------|
   "you're too young to live this way..."
D|----------------------------------------------|
A|----------------------------------------------|
F|----55/777777777777--1010101010101099-77------|
C|----xx-xxxxxxxxxxxx--x-x-x-x-x-x-x-xx-xx------|
G|----33/555555555555--8-8-8-8-8-8-8-77-55------|
C|----------------------------------------------|
  "just look around and see..."
D|---------------88-------------88/-10-10-10/17-17-17-15-15-15-20-20-20^--|
A|----------1010-----------1010-------------------------------------------|
F|---5/7-77---------5/7-77------------------------------------------------|
C|------------------------------------------------------------------------|
G|------------------------------------------------------------------------|
C|------------------------------------------------------------------------|

---------------------------------------------------------------------------
Verse    
Lead
D|---------------------------------------------|
A|---------------------------------------------|
F|---------------------------------------------|
C|--------------------------------7------------|
G|---0-0h7---8\5---0h7----8\5-5/8--------------|
C|---0-----00----0-----00----------------------|
           ..    .     ..
D|---------------------------------------------|
A|---------------------------------------------|
F|---------------------------------------------|
C|----------------------------555555-----------|
G|---0-0h7---8\5---0h7----8\5-777777-----------|
C|---0-----00----0-----00----------------------|
           ..    .     ..
Rythem
D|-----------------------------------------------------------|
A|-----------------------------------------------------------|
F|-----------------------------------------------------------|
C|-----------------------------------------------------------|
G|---0---000-0-12\\\----0-0-0-12\\\---000-0-12\\\---000------|
C|---0---000-0-12\\\----0-0-0-12\\\---000-0-12\\\---000------|

---------------------------------------------------------------------------
1:39
D|------------------------------------|
A|----6\\\----------------------------|
F|---10\\\----------------------------|x3
C|------------------------------------|
G|----------0-0-----------------------|
C|----------0-0----0-5-7-8------------|
            .
1:48
D|---------------------------------------------|
A|---6-6---------------------------------------|
F|---9-9---------------------------------------|
C|-------10-10--7-7--10-10---------------------|
G|-------8--8---5-5--8--8----------------------|
C|---------------------------------------------|


1:51   Repeat Pre-Chorus

2:03   Repeat Chorus

---------------------------------------------------------------------------
2:27
Breakdown   x2

D|-----------------------------------------|
A|-----------------------------------------|
F|-----------------------------------------|
C|-----------------------------------------|
G|---000-0-0-000-0-0-00000000--------------|
C|---000-0-0-000-0-0-00000000--------------|
     ... . . ... . . ........
Lead
D|-------------------------------------------|
A|---6--6-6--55-5-55--6--6-6--55-5^----------|
F|---10-9-10-99-9-99--10-9-10-99-9^----------|
C|-------------------------------------------|
G|-------------------------------------------|
C|-------------------------------------------|
Rythem
D|-------------------------------------------|
A|--------------------11-11-11-1111-11^------|
F|--------------------15-15-15-1515-15^------|
C|-------------------------------------------|
G|-------------------------------------------|
C|-------------------------------------------|

2:39   x2
D|------------------------------------|
A|------------------------------------|
F|------------------------------------|
C|------------------------------------|
G|---000-0-0-000-0-0-00000000---------|
C|---000-0-0-000-0-0-00000000---------|
     ... . . ... . . ........

2:44     x2
D|------------------------------------|
A|------------------------------------|
F|------------------------------------|
C|------------------------------------|
G|---0000-00--0000-00-00000000--------|
C|---0000-00--0000-00-00000000--------|
     .... ..  .... .. ........

Repeat Intro Riff

The End


************************************

| .   palm mute
| /   slide up
| \   slide down
| h   hammer-on
| p   pull-off
| ~   vibrato
| +   harmonic
| x   Mute note
| ^   Bend
| pb  Pre-bend
| br  Bend release
| pbr Pre-bend release
| brb Bend release bend

************************************





Comments


Popular Of Mice And Men tabs & chords
Second And Sebring Bass Tabs
The Ballad Of Tony Clayton And The Rawding Millionaire Bass Tabs
Westbound And Down 2 Bass Tabs
Depths 3 Tabs
My Understandings 1 Tabs
Product Of A Murder Tabs
Seven Thousand Miles For What Intro Tabs
They Don't Call It The South For Nothing 1 Tabs
Would You Still Be There Tabs
Youre Not Alone 1 Tabs


Song lyrics



↑ Back to top | Tablatures and chords are parodies/interpretations of the original songs. You may use it for private study, scholarship, research or language learning purposes only
© 2014 AZChords.com Contact us | Privacy policy | DMCA | Add/correct tabs | Request tabs | Top 50 tabs