» » »

The Calm Tabs (ver.1)

Artists:  A B C D E F G H I J K L M N O P Q R S T U V W X Y Z # 

The Calm Tabs (ver.1)

Of Mice And Men
Rating:
0/5 (0 votes)

Hard to play? Try these video lessons and learn fast.
                (/) Slide Up  (\) Slide Down  (h) Hammer On  (p) Pull Off  (b) Bend
This is the first part, its played continuously through the whole song a total of 6 times.
E|---------------------------------------------------------------------------|
B|-------------------------0-----8-------------------0--------8----8/10\8----|
G|--7/9--------------5--------5-------------------5-----5--------------------|
D|-------10\7-----7-----7----------------------7-----------7-----------------|
A|-------------0----------------------------0--------------------------------|
E|---------------------------------------------------------------------------|



E|---------------------------------------------------------------------|
B|-------------------------0-------------------------------------------|
G|--------------------2------------------------5p4------------7/9------|
D|-----------2---------------------------5----------5--------------10--|
A|-----3--------3---------------------------5----------5---------------|
E|--1-----1--------1------------------3--------------------------------|

Part 2 - This little part is played over the top of the 2nd part 1

E|---------------------------------------------|
B|--8--10--------------------8--10-------------|
G|---------7--5---------------------7--5--4b5--|
D|---------------------------------------------|
A|---------------------------------------------|
E|---------------------------------------------|

Part 3 - played in the background during the 3rd and 4th part 1s

E|17171717171717171717171717171715151515151515151513131313121212121212121212-|
B|---------------------------------------------------------------------------|
G|---------------------------------------------------------------------------|
D|---------------------------------------------------------------------------|
A|---------------------------------------------------------------------------|
E|---------------------------------------------------------------------------|



E|12121010101010101010101010108888
B|--------------------------------|
G|--------------------------------|
D|--------------------------------|
A|--------------------------------|
E|--------------------------------|

Part 4 - Played over top of part 3 during the 3rd and 4th part 1s

E|---------------------------------------|
B|-15/17---------------------------------|
G|-------0-14/16-0-12-0-9/10-0-----------|
D|-----------------------------10\9-0----|
A|------------------------------------10-|
E|---------------------------------------|


Song order

Part 1 x1
Part 1/Part 2 x1
Part 1/Part 3/Part 4 x2
Part 1/2nd half of part 2 x1
Part 1 x1

I made a video of myself playing the song here.. It'd mean a lot if you checked it out.
            
Hard to play? Try these video lessons and learn fast. | Correct




comments powered by Disqus
↑ Back to top | Tablatures and chords are parodies/interpretations of the original songs. You may use it for private study, scholarship, research or language learning purposes only