» » »

The Ballad Of Tony Clayton And The Rawding Millionaire Tabs (ver.1)

Artists:  A B C D E F G H I J K L M N O P Q R S T U V W X Y Z # 

The Ballad Of Tony Clayton And The Rawding Millionaire Tabs (ver.1)

Of Mice And Men
Rating:
5/5 (6 votes)

Hard to play? Try these video lessons and learn fast.
                -------------------------------------------------------------------------------
    The Ballad of Tony Clayton and the Rawdawg Millionaire - Of Mice and Men
-------------------------------------------------------------------------------

Tuning: Drop C# [ C#, G#, C#, F#, A#, d# ]


There are some neck slides and such I didn't bother tabbing in because
they're easy to hear and add in while playing.

Had a hard time figuring out the lead during the chorus which is why
it isn't tabbed. If I manage to figure it out I'll add it later.

Great band and a fun song to play.
Have fun!

************************************

| /   slide up
| \   slide down
| h   hammer-on
| p   pull-off
| ~   vibrato
| +   harmonic
| x   Mute note
| b   Bend
| .   palm mute

************************************

         ||Intro & Verse 1|| 0:00-0:27
d#|-----------------------------------------------------|
A#|-----------------------------------------------------|
F#|-----------------------------------------------------| 
C#|------00-----00----------------55-55-55-11-11-11-111-|
G#|------00-----00----------5-8-0-55-55-55-11-11-11-111-|
C#|-12\1-00-3-7-00-0000-3-7-------55-55-55-11-11-11-111-|
                   ....              ..    ..    ..

d#|-----------------------------------------|
A#|-----------------------------------------|
F#|-----------------------------------------|
C#|-00-----00----------------55-55-55/1-111-|
G#|-00-----00----------5-8-0-55-55-55/1-111-|
C#|-00-3-7-00-0000-3-7-------55-55-55/1-111-|
              ....              ..      
   repeat the above minus the initial slide.


         ||Verse 1 Pt.2|| 0:28-0:42
d#|-------------------------------------------------|
A#|-------------------------------------------------|
F#|-------------------------------------------------|
C#|-00-000---55-55-55-11-11-11-111-------x2---------|
G#|-00-000---55-55-55-11-11-11-111------------------|
C#|-00-000---55-55-55-11-11-11-111------------------|
       ..       ..    ..    ..

         ||Chorus|| 0:43-1:01
d#|-------------------------------------------------------------------|
A#|-------------------------------------------------------------------|
F#|-------------------------------------------------------------------|
C#|-1-1-1-1~--3-3-3-3~--5-5-5-5~--3-3-3-3~----x2---1-1-1-1~--3-3-3-3~-|
G#|-1-1-1-1~--3-3-3-3~--5-5-5-5~--3-3-3-3~---------1-1-1-1~--3-3-3-3~-|
C#|-1-1-1-1~--3-3-3-3~--5-5-5-5~--3-3-3-3~---------1-1-1-1~--3-3-3-3~-|
        .         .         .         .                .         .

         ||Verse 2|| 1:02-1:14
d#|-------------------------------------------------|
A#|-------------------------------------------------|
F#|-------------------------------------------------|
C#|-00-000---55-55-55-11-11-11-111------------------|
G#|-00-000---55-55-55-11-11-11-111------------------|
C#|-00-000---55-55-55-11-11-11-111------------------|
       ..       ..    ..    ..


d#|-------------------------------------------------|
A#|-------------------------------------------------|
F#|-------------------------------------------------|
C#|-00-000---55-55-55-11-11-11-1--------------------|
G#|-00-000---55-55-55-11-11-11-1--------------------|
C#|-00-000---55-55-55-11-11-11-1-1b-----------------|
       ..       ..    ..    ..

          ||Breakdown|| 1:15-1:47
d#|-------------|-------------------------------------------------|
A#|-------------|-------------------------------------------------|
F#|-------------|-------------------------------------------------|
C#|-0-0-000-0-0-|-0-0-000-0-0---0-0-000-0-0--8888877777--------x2-|
G#|-0-0-000-0-0-|-0-0-000-0-0---0-0-000-0-0--8888877777-----------|
C#|-1-1-111-1-1-|-1-1-111-1-1---1-1-111-1-1--8888877777-----------|
    . . ... . .   . . ... . .   . . ... . .   . .  . . 


d#|-----------------------------------------------------|
A#|-----------------------------------------------------|
F#|-----------------------------------------------------|
C#|-0-0-000-0-0--0-0-0-----0-0--0-0-000-0-0--8888877777-|
G#|-0-0-000-0-0--0-0-0--3+-0-0--0-0-000-0-0--8888877777-|
C#|-1-1-111-1-1--0-0-0-----0-0--1-1-111-1-1--8888877777-|
    . . ... . .  . . .     . .  . . ... . .   . .  . .


d#|------------------------------------------|
A#|------------------------------------------|
F#|------------------------------------------|
C#|-0-0-000-0-0---0-0-000-0-0----------------|
G#|-0-0-000-0-0---0-0-000-0-0----------5-8-4-|
C#|-1-1-111-1-1---1-1-111-1-1--0-3-7-0-------|
    . . ... . .   . . ... . .

         ||Verse 3|| 1:48-2:02
d#|------------------------------------------------|
A#|------------------------------------------------|
F#|------------------------------------------------| 
C#|-00-----00----------------55-55-55-11-11-11-111-|
G#|-00-----00----------5-8-0-55-55-55-11-11-11-111-|
C#|-00-3-7-00-0000-3-7-------55-55-55-11-11-11-111-|
              ....              ..    ..    ..

d#|-----------------------------------------|
A#|-----------------------------------------|
F#|-----------------------------------------|
C#|-00-----00----------------55-55-55/1-111-|
G#|-00-----00----------5-8-0-55-55-55/1-111-|
C#|-00-3-7-00-0000-3-7-------55-55-55/1-111-|
              ....              ..      

         ||Bridge|| 2:03-2:16
d#|--------------------------------------|
A#|--------------------------------------|
F#|--------------------------------------|
C#|-\0~----5~----1~----0~-----5~-----1~--| x2
G#|-\0~----5~----1~----0~-----5~-----1~--|
C#|-\0~----5~----1~----0~-----5~-----1~--|

         ||Breakdown 2|| 2:17-2:44
d#|--------------------------------------------------------------------------|
A#|--------------------------------------------------------------------------|
F#|--------------------------------------------------------------------------|
C#|-0-0-00-0---00---0-0-00-0---00-00---0-0-00-0---00---0-0-00-0---00--\------|
G#|-0-0-00-0---00---0-0-00-0---00-00---0-0-00-0---00---0-0-00-0---00--\------|
C#|-0-0-00-0---00---0-0-00-0---00-00---0-0-00-0---00---0-0-00-0---00--\------|
    . . .. .   ..   . . .. .   .. ..   . . .. .   ..   . . .. .   ..

d#|--------------------------------------------------------------------------|
A#|--------------------------------------------------------------------------|
F#|--------------------------------------------------------------------------|
C#|-0~-0~-00~-0~------0~-0~-00~-0~---00-00---0-0-00-0---00-00---0-0-00-0---0-|
G#|-0~-0~-00~-0~------0~-0~-00~-0~---00-00---0-0-00-0---00-00---0-0-00-0---0-|
C#|-0~-0~-00~-0~------0~-0~-00~-0~---00-00---0-0-00-0---00-00---0-0-00-0---0-|
    .  .  ..  .       .  .  ..  .    .. ..   . . .. .   .. ..   . . .. .   .

         ||Chorus|| 2:45-3:13
d#|------------------------------|--------------------------------------------|
A#|------------------------------|--------------------------------------------|
F#|------------------------------|--------------------------------------------|
C#|-1~---3~---5-5-5-5~--3-3-3-3~-|-1-1-1-1~--3-3-3-3~--5-5-5-5~--3-3-3-3~--x3-|
G#|-1~---3~---5-5-5-5~--3-3-3-3~-|-1-1-1-1~--3-3-3-3~--5-5-5-5~--3-3-3-3~-----|
C#|-1~---3~---5-5-5-5~--3-3-3-3~-|-1-1-1-1~--3-3-3-3~--5-5-5-5~--3-3-3-3~-----|
                  .         .          .         .         .         .

         ||Extended Chorus Part|| 3:14-3:27
d#|----------------------------------------------|
A#|----------------------------------------------|
F#|----------------------------------------------|
C#|-1-1-11-1~--3333333--5-5-55-5~--3333333----x2-|
G#|-1-1-11-1~--3333333--5-5-55-5~--3333333-------|
C#|-1-1-11-1~--3333333--5-5-55-5~--3333333-------|
        ..                  .. 

         ||Outro|| 3:28-End
d#|--------------------------------|
A#|--------------------------------|
F#|-------0~---------0~-------0~---|
C#|-----3~---------3~----x2---3~---|
G#|---1~---------1~-----------1~---|
C#|-1~---------1~-------------1~---|
            
Hard to play? Try these video lessons and learn fast. | Correct




comments powered by Disqus
↑ Back to top | Tablatures and chords are parodies/interpretations of the original songs. You may use it for private study, scholarship, research or language learning purposes only