>
 >
Seven Thousand Miles For What?

Seven Thousand Miles For What? Guitar Tabs

Of Mice And Men - Seven Thousand Miles For What? chords, tabs, tablatures, lyrics

Guitar lessons | Add/correct | Request | Top 50 tabs Artists:  A B C D E F G H I J K L M N O P Q R S T U V W X Y Z 0-9

Seven Thousand Miles For What? Guitar Tabs – Of Mice And Men

CD, Sheet music, Poster

Do you like Seven Thousand Miles For What?? Share with your friends now
Tabs
-------------------------------------------------------------------------------
                        SEVEN THOUSAND MILES FOR WHAT – Of Mice & Men
-------------------------------------------------------------------------------

 INTRO
|---------------------------------------------------------------------------|
|---------------------------------------------------------------------------|
|---------------------------------------------------------------------------|
|-10-5----------------------------------------------------------0~----------|
|-10-5-00-000000--00-000000--00-000000--00-000000--00~-000000~--0~----------|
|-10-5-00-000000--00-000000--00-000000--00-000000--00~-000000~--0~----------|
       .. ......  .. ......  .. ......  .. ......  ..  ......
|----------------------------------------------------|
|----------------------------------------------------|
|----------------------------------------------------|
|------3p0----------------------3p0------------------|
|-0-3h5----5h3-5h3---------0-3h5----5h3-5h3----------|
|-0----------------5h3-5p0-0----------------5h3-5p0--| (4x)

 CHORUS
|---------------------------------------------------------------------------|
|---------------------------------------------------------------------------|
|---------------------------------------------------------------------------|
|-10~--5555555555555555--10-------5-------10-------5-------10-------5-------|
|-8-~--5555555555555555--8--(16x)-5-(16x)-8--(16x)-5-(16x)-8--(16x)-5-(16x)-|
|-8-~--5555555555555555--8--------5-------8--------5-------8--------5-------|


|---------------------------------------------------------------|
|-6-6--6-6-66-6--6-6--6-6-66b----6-6--6-6-66-6--6-6--6-6-66b----|
|-9-9--9-9-99-9--9-9--9-9-99b----9-9--9-9-99-9--9-9--9-9-99b----|
|---------------------------------------------------------------|
|---------------------------------------------------------------|
|---------------------------------------------------------------|

|---------------------------------------------------------------|
|-6-----1010--------------------6-----10b-----------------------|
|-9-----1313--------------------9-----13b-----------------------|
|------------6h8h6-5h7h5---(3x)--------------0~-----------------|
|---8/5---------------------------8\5--------0~-----------------|
|---8/5---------------------------8\5--------0~-----------------|

|----------------------------------------------------------|
|-66-66--1010-1010---66-66--1010-1010---66-66--1010-1010---|
|-99-99--1313-1313---99-99--1313-1313---99-99--1313-1313---|
|----------------------------------------------------------|
|----------------------------------------------------------|
|----------------------------------------------------------|  (2x)

|----------------------------------------------------------|
|----------------------------------------------------------|
|----------------------------------------------------------|
|-10-10-555~---10~---5~---10~---5555555555-55-55-----------|
|-8--8--555~---8-~---5~---8-~---5555555555-55-55-----------|
|-8--8--555~---8-~---5~---8-~---5555555555-55-55-----------|
        ..                      ........
 Play the CHORUS


|------------------------------------------------------------------------|
|----------------------------------------6-------------------------------|
|----------------------------------------9-------------------------------|
|---------------------------------------------------------------------0~-|
|-0-0-0000-0-0-0000-0-0-0-0-0-0000-0-0-0---5/8--(2x)------------------0~-|  
|-0-0-0000-0-0-0000-0-0-0-0-0-0000-0-0-0---5/8--------0-0-0000--------0~-|
  . . .... . . .... . . . . . .... . . .              . . ....

************************************

| /   slide up
| \   slide down
| h   hammer-on
| p   pull-off
| ~   vibrato
| .   Mute note

************************************

There’s a few lead parts missing that were tough to hear, sorry
Comment/rate





Comments


Popular Of Mice And Men tabs & chords
Product Of A Murderer Bass Tabs
The Ballad Of Tony Clayton And The Rawding Millionaire Bass Tabs
My Understandings Chords
Second And Sebring 3 Chords
Space Enought To Grow Chords
Let Live 2 Tabs
Ohioisonfire Tabs
The Great Hendowski Tabs
When You Cant Sleep At Night 2 Tabs
When You Cant Sleep At Night 4 Tabs


Song lyrics



↑ Back to top | Tablatures and chords are parodies/interpretations of the original songs. You may use it for private study, scholarship, research or language learning purposes only
© 2014 AZChords.com Contact us | Privacy policy | DMCA | Add/correct tabs | Request tabs | Top 50 tabs