» » »

Of Mice And Men, Product Of A Murderer Bass tabs (ver.1)

Artists:  A B C D E F G H I J K L M N O P Q R S T U V W X Y Z # 

Product Of A Murderer Bass tabs (ver.1)

Of Mice And Men Tabs
 Rating:
4/5 (4 votes)
Product Of A Murderer lessons Tabs too difficult? Try these video lessons and learn fast
1
                
Tuning: Drop C

Intro/Verse 1 [0:13-0:28]
F|------------------------------------------------|
C|----------------------------------------------5-|
G|---------------------------------------5555333--|
C|1-0-0--0-0-1-0-0-00-00-1-0-0--0-0-1-0-0---------|x2

Breakdown 1 [0:28-0:48]
F|--------------------------------------|
C|--------------------------------------|
G|--------------------------------------|
C|1-0-0----1-0-0-00000000-1-0-0----1-0-0|x2

Pre-Chorus [0:48-0:58]
F|-----------------------------------------------------|
C|-----------------------------------------------------|
G|---------------------------------6b---6b----6b--6b---|
C|88888888888888885555555533333333---0-0--0-0~--00--0-0|x2

Verse 2 [1:01-1:16]
F|-------------------------------------------|
C|-------------------------------------------|
G|6b---6b----6b--6b---6b---6b----------------|
C|--0-0--0-0~--00--0-0--0-0--0-0--11-1-1-1-1-|x2

Breakdown 2 [1:16-1:31]
F|------------------------------------------------------------------------|
C|------------------------------------------------------------------------|
G|------------------------------------------------------------------------|
C|000-000---0-0-0-0-0-0-0--000-000----000-000---0-0-0-0-0-0-0--000-000----|

[1:31-1:46]
F|------------------------------------------------------------------------|
C|------------------------------------------------------------------------|
G|------------------------------------------------------------------------|
C|111-111---1-1-1-1-1-1-1--111-111----111-111---1-1-1-1-1-1-1--111-111----|

[1:46-1:49]
F|---------------------------|
C|---------------------------|
G|---------------------------|
C|1-0-0--1-0-0--1-0-0--333555|

Pre-Chorus [1:49-2:08]
F|-----------------------------------------------------|
C|-----------------------------------------------------|
G|---------------------------------6b---6b----6b--6b---|
C|88888888888888885555555533333333---0-0--0-0~--00--0-0|x2

F|-------------------------|
C|-------------------------|
G|-------------------------|
C|8888888888888888555555553|

Verse 3 [2:08-2:23]
F|-------------------------------------------|
C|-------------------------------------------|
G|6b---6b----6b--6b---6b---6b----------------|
C|--0-0--0-0~--00--0-0--0-0--0-0--11-1-1-1-1-|x2

Pre-Chorus 2 [2:23-2:30]
F|--------------------------------|
C|--------------------------------|
G|--------------------------------|
C|8~-------5~------1~-----3~------|

Chorus [2:30-3:51] (Repeat Chorus until song fades out)
F|--------------------------------------------------------------------------|
C|--------------------------------------------------------------------------|
G|--------------------------------------------------------------------------|
C|1-1-1-1--3-3-3-3--5-5-5-5--5-5-5-5--8-8-8-8--5-5-5-3-3-3-5-5-5-5--3-3-3-3-|

F|-------------------------------------------------------------------------------|
C|-------------------------------------------------------------------------------|
G|--------------------------5\10-10-10-10----------------------------------------|
C|1-1-1-1--3-3-3-3--5-5-5-5----------------8-8-8-8--5-5-5-3-3-3-5-5-5-5--3-3-3-3-|




| /  slide up
| \  slide down
| h  hammer-on
| p  pull-off
| b  bend
| ~  vibrato
| +  harmonic
| x  Mute note
===============================================================================
            
Submit corrections

comments powered by Disqus
↑ Back to top | Of Mice And Men Bass for Product Of A Murderer. Lyrics for acoustic guitar and electric guitar. 1 Tablatures and chords are parodies/interpretations of the original songs. You may use it for private study, scholarship, research or language learning purposes only