» » »

Of Mice And Men, Poker Face Tabs (ver.1)

Artists:  A B C D E F G H I J K L M N O P Q R S T U V W X Y Z # 

Poker Face Tabs (ver.1)

Of Mice And Men Tabs
Rating:
5/5 (2 votes)
Poker Face lessons Tabs too difficult? Try these video lessons and learn fast
                Of Mice and Men
Lady GaGa Cover

NoT perfect

Tunning Drop D

Intro

E---------------------------------------------------|
B---------------------------------------------------|
G---------------------------------------------------|
D---6--6--------------------6--6-------4--4---------|  x's 6
A---------------6--6-------------7------------------|
D---------6--6--------6--6----------9--------4--4---|

Guitar 2 
|---------------------------|--------------------------|
|---------------------------|--------------------------|
|---4--4--4--4--4--4--4--4--|--4--4--4--4--6--4--6--4--|
|---------------------------|--------------------------|
|---------------------------|--------------------------|
|---------------------------|--------------------------|
|
|  
|---------------------------|--------------------------|
|---8--8--8--8--8--8--8--8--|--8--8--8--8--9--8--9--8--|
|---------------------------|--------------------------|
|---------------------------|--------------------------|
|---------------------------|--------------------------|
|---------------------------|--------------------------|

Verse is just these 2 chords
The Rhythm is Easy

|--------|
|--------|
|--------|
|--------|
|--6--4--|
|--6--4--|

Chorus

|--------------------------|
|--------------------------|
|--------------------------|
|--6-----2-----9-----4-----|
|--6-x8--2-x8--9-x8--4-x8--|
|--6-----2-----9-----4-----|

Intro

Verse

Chorus

Intro x3 
on last time this

E-------------------------------------------------|
B-------------------------------------------------|
G-------------------------------------------------|
D---6--6--------------------6--6------------------|
A---------------6--6-------------7----------------|
D---------6--6--------6--6----------9--8\9--8\9---|

Breakdown

|-----|
|-----|
|-----|
|-----|
|--6--|
|--6--|

Chorus

Intro
            

comments powered by Disqus
↑ Back to top | Of Mice And Men Tabs for Poker Face. Lyrics for acoustic guitar and electric guitar. Tablatures and chords are parodies/interpretations of the original songs. You may use it for private study, scholarship, research or language learning purposes only