» » »

Of Mice And Men, Og Loko Bass tabs (ver.2)

Artists:  A B C D E F G H I J K L M N O P Q R S T U V W X Y Z # 

Og Loko Bass tabs (ver.2)

Of Mice And Men Tabs
Rating:
0/5 (0 votes)
Og Loko lessons Tabs too difficult? Try these video lessons and learn fast
                (0:04)
F|-----|
C|-----|
G|-----|
C|-0~--|

(0:07 "I'm coming in hot..")                  (0:21)
F|---------------------------------------|   F|-----|
C|-222----------222----------------------|x4 C|-----|
G|--------------------------3333-3035----|   G|-3~--|
C|-----0--3--0------0--3--0--------------|   C|-----|

(0:23 "I was lost..")                          (0:36)       (0:49 together)
F|---------------------------------------|   F|----------|   F|-------------|
C|---------------------------------------|x4 C|----------|X4 C|-10-10-10-10~|
G|---------------------------------------|   G|-5--------|   G|--8--8--8--8~|
C|-0000--0-0-0000-0000-0000--------------|   C|---0-1-00-|   C|-------------|

(0:52 "Meet my dedication..")
F|----------------------------------|---------------------------------|
C|----------------------------------|---------------------------------|
G|----------------------------------|---------------------------------|
C|-0000-00-0000-00-8888-88-5555-55--|-0000-00-0000-00-3333-33-5555-55-|

(1:05 "Meet my dedication..")
F|--------------------------------------------------------|
C|--------------------------------------------------------|
G|--------------------------------------------------------|
C|-0000-0000-000-0000-0000-000-8888-8888-888-5555-5555-555|

(1:13)
F|--------------------------------------------------------|----|
C|--------------------------------------------------------|----|
G|--------------------------------------------------------|-0~-|
C|-0000-0000-000-0000-0000-000-3333-3333-333-5555-5555-555|-0~-|

(1:26 "And now I can see..")
F|---------------------------------------|   
C|-222----------222----------------------|x2 
G|--------------------------3333-3035----|   
C|-----0--3--0------0--3--0--------------|
   
(1:33)         (1:35)
F|------------|-----------------------------------------|
C|------------|-----------------------------------------|
G|------------|-----------------------------------------|
C|-0000-0-0-0-|-00000000-0000-0-0-0-000-000-0000-0-0-0--|

(1:42)                     (1:46)
F|------------------------|----------------------------|
C|------------------------|----------------------------|X4
G|------------------------|----------------------------|
C|-00000000-0-0-0-000-000-|8880-0-0-8880-0-0-1111-1333-|

(2:00 "Meet my dedication..")
F|----------------------------------|---------------------------------|
C|----------------------------------|---------------------------------|
G|----------------------------------|---------------------------------|
C|-0000-00-0000-00-8888-88-5555-55--|-0000-00-0000-00-3333-33-5555-55-|

(2:14 "Meet my dedication..")
F|--------------------------------------------------------|
C|--------------------------------------------------------|
G|--------------------------------------------------------|
C|-0000-0000-000-0000-0000-000-8888-8888-888-5555-5555-555|

(2:21)
F|--------------------------------------------------------|----|
C|--------------------------------------------------------|----|
G|--------------------------------------------------------|-0~-|
C|-0000-0000-000-0000-0000-000-3333-3333-333-5555-5555-555|-0~-|

(2:35 "I'm still here..")         (2:42)
F|-------------------------------|-----------------------------------------|
C|-------------------------------|-----------------------------------------|
G|-------------------------------|-----------------------------------------|
C|-0000-0000-0000-0000-0000-0000-|-0000-0000-0000-0000-0000-0000-0000-0000-|

(2:50 *watch the timing*)
F|----------------|-------------|-----------------|
C|----------------|-------------|-----------------|x4
G|----------------|-------------|-----------------|
C|-0000-0000-0000-|-000-000-000-|-00-000-0-0000-0-|
            
Submit corrections

comments powered by Disqus
↑ Back to top | Of Mice And Men Bass for Og Loko. Lyrics for acoustic guitar and electric guitar. Tablatures and chords are parodies/interpretations of the original songs. You may use it for private study, scholarship, research or language learning purposes only