» » »

Og Loko Tabs (ver.1)

Artists:  A B C D E F G H I J K L M N O P Q R S T U V W X Y Z # 

Og Loko Tabs (ver.1)

Of Mice And Men
Rating:
4/5 (4 votes)

Hard to play? Try these video lessons and learn fast.
                This is my first tab so go easy...
The other tab was some what correct and im sure this is 100% correct.
Great band and a great song so enjoy!
p= Pull off
b= Bend
*= Palm Mute

Song is in Drop C (CGCFAD)
INTRO RIFF (0:00-0:20) 
D|----------------------------------|X6    |----------|
A|----------------------------------|Then  |----------|
F|----------------------------------|end   |----------|
C|----------------------------------|with  |--5-------|Ring Out.
G|-7777--------7777-------333335555-|      |--3-------|
C|------0-3p0-------0-3p0-----------|      |----------|

RIFF 1 (0:23-0:29)
D|--------------------------------|x2
A|--------------------------------|
F|--------------------------------|
C|000--0-0---000-------000-000----|
G|000--0-0---000-------000-000----|
C|000--0-0---000--0-0--000-000----|
  ***  * *   ***       *** ***
THEN
D|---------------------------|x2
A|---------------------------|
F|---------------------------|
C|---------------------------|
G|---------------------------|
C|000-0-0-000-0-0-00000000---|

PRE-INTRO
D|------------------|x4 End With>|------------|
A|------------------|            |------------|
F|------------------|            |------------|
C|------------------|            |-3333-------|
G|--5---------------|            |-1111-------|
C|-----0-1p0---0-0--|            |------------|

CHORUS
D|-------------------------------------------------------------------------|
A|-------------------------------------------------------------------------|
F|-------------------------------------------------------------------------|
C|0000--00--0000--00--8888-88--5555--55--0000-00--0000-00--3333-33-5555-55-|
G|0000--00--0000--00--8888-88--5555--55--0000-00--0000-00--3333-33-5555-55-|
C|0000--00--0000--00--8888-88--5555--55--0000-00--0000-00--3333-33-5555-55-|

 
D|-------------------------------------------------------------------------|
A|-------------------------------------------------------------------------|
F|-------------------------------------------------------------------------|
C|000--0--00-00--000--0-00-00-888--88-88--555--5--55-55--000-0-00-00-000--0|
G|000--0--00-00--000--0-00-00-888--88-88--555--5--55-55--000-0-00-00-000--0|
C|000--0--00-00--000--0-00-00-888--88-88--555--5--55-55--000-0-00-00-000--0|
  ***  *  ** **  ***  * ** ** ***  ** **  ***  *  ** **  *** * ** ** ***  *
D|-----------------------------------|
A|-----------------------------------|
F|-----------------------------------|
C|00-00--333--3--33-33--555--5--55-55|
G|00-00--333--3--33-33--555--5--55-55|
C|00-00--333--3--33-33--555--5--55-55|
  ** **  ***  *  ** **  ***  *  ** **

INTRO RIFF

SICK BREAKDOWN
D|---------------------------|x4
A|---------------------------|
F|---------------------------|
C|-000000--0--0--0--0--------|
G|-000000--0--0--0--0--------|
C|-000000--0--0--0--0--------|
   ******  *  *  *  *
This part is a little hard to hear but its right.
D|-------------------------------|x4
A|-------------------------------|
F|-------------------------------|
C|-------------------------------|
G|-------------------------------|
C|--8800-0-0---8800-0-0-11113333-|

CHORUS

SIIICCCKKK BREAKDOWN
SHHH...
D|--------------------------------------------------|x4
A|--------------------------------------------------|
F|--------------------------------------------------|
C|000--000-----000---000-000-000--000-----000-------|
G|000--000-----000---000-000-000--000-----000-------|
C|000--000-----000---000-000-000--000--0--000--0----|
  ***  ***     ***   *** *** ***  ***     ***
  
            
Hard to play? Try these video lessons and learn fast. | Correct




comments powered by Disqus
↑ Back to top | Tablatures and chords are parodies/interpretations of the original songs. You may use it for private study, scholarship, research or language learning purposes only