>
 >
Let Live 3

Let Live 3 Guitar Tabs

Of Mice And Men - Let Live 3 chords, tabs, tablatures, lyrics

Guitar lessons | Add/correct | Request | Top 50 tabs Artists:  A B C D E F G H I J K L M N O P Q R S T U V W X Y Z 0-9

Let Live 3 Guitar Tabs – Of Mice And Men

CD, Sheet music, Poster

Do you like Let Live 3? Share with your friends now
Bass TabsTabsTabs v2Tabs v3Tabs v4
Intro
D|---------------------------------------------------------------------|
A|---------------------------------------------------------------------|
F|---------------------------------------------------------------------|
C|---------------------------------------------------------------------|
G|555555555555555555555555555555555555555555555555553333333333333333---|
C|000000000000000088888888888888880000000000000000008888888888888888---|
  ..................................................................
D|---------------------------------------------|\
A|---------------------------------------------| \
F|---------------------------------------------|
C|---------------------------------------------|  X2
G|-5-5-5-5-5-5-5-5-5-55-5-5-55-5-5-55-5-5-55-5-| /
C|-0-0-0-0-0-0-0-0-8-88-8-8-88-8-8-88-8-8-88-8-|/



Pre-verse               Guitar 1
D|------0----0-----------0----0---------------|
A|----6--------6-------6--------6-------------|
F|--7------7-----5----7-----7-----5-----------|
C|--------------------------------------------|
G|--------------------------------------------|
C|--------------------------------------------|
                        Guitar 2
D|--------------------------------------------|
A|--------------------------------------------|
F|--------------------------------------------|
C|--0-----------------0-----------------------|
G|--0-----------------0-----------------------|
C|--0-----------------0-----------|



Verse                   /Guitar 1\
D|----------------------------------------------|\
A|----------------------------------------------| \
F|----------------------------------------------|  
C|---------(X3)---------------------------------|  X2
G|-----5h7-8-5-7-8-3-3-----7p5-5-5-5h7-5-5-5----| /
C|---00---0-0-0-0-0-0----00---0-0-0---0-0-0-----|/
     ..   . . . . . .    ..   . . .   . . .
                        /Guitar 2\
D|----------------------------------------------|Guitar 2 comes in 
A|----------------------------------------------|the second time 
F|----------(X3)--------------------------------|Guitar 1 plays.
C|-----3h5-6-3-5-6-2-2-----6p3-3-3-3h6-3-3-3----|
G|----------------------------------------------|
C|---00---0-0-0-0-0-0----00---0-0-0---0-0-0-----|
     ..   . . . . . .    ..   . . .   . . . 


Pre-chorus
D|--------------------------------------|          |---------------------------------|
A|--------------------------------------|          |---------------------------------|
F|-------------------------------7------| <--Or--> |--3-----5----------3-----5-----7-|
C|--8---10---0--------8----10----7------|Which ever|--3-----5-----0----3-----5-----7-|
G|--8---10---0--------8----10----5------|you prefer|--1-----3-----0----1-----3-----5-|
C|--8---10---0--------8----10----0------|          |--------------0----------------0-|




Chorus
D|-----------------------------------|-----------------------------------------------|
A|-----------------------------------|-----------------------------------------------|
F|-----------------------------------|-----------------------------------------------|
C|----------(X2)---------------------|----------------(X2)---------------------------|
G|-5-5-5-5-5-5-5-5-5555555555555555--|--5555555555555555-5-55-5-5-55-5-5-55-5-5-55-5-|
C|-0-0-0-0-0-0-0-0-8888888888888888--|--0000000000000000-8-88-8-8-88-8-8-88-8-8-88-8-|



Post chorus             Guitar 1
D|------------------------------|
A|------------------------------|
F|------(X8)--------------------|
C|--0-00-00-0--------------8--5-|
G|--0-00-00-0--77773333----8--5-|
C|--0-00-00-0--------------8--5-|
    . .. .. .           Guitar 2
D|---------------------------------|
A|---------------------------------|Guitar 2 plays 
F|---------------------------------|after Guitar 1
C|------(X4)---------------8--5----|plays X4
G|--0000000000000000-------8--5----|
C|--0000000000000000-------8--5----|
    ................


Verse 2         Guitar 1
D|----------------------|
A|----------------------|
F|----------------------|
C|---------(X4)---------|
G|-----5h7-8-5-7-8-3-3--|
C|---00---0-0-0-0-0-0---|
     ..   . . . . . .
D|----------------------|
A|----------------------|Guitar 2 plays
F|---------(X2)---------|after Guitar 1
C|-----3h5-6-3-5-6-2-2--|plays X2
G|----------------------|
C|---00---0-0-0-0-0-0---|
     ..   . . . . . .


Pre Chorus
D|--------------------------------------|          |---------------------------------|
A|--------------------------------------|          |---------------------------------|
F|-------------------------------7------| <--Or--> |--3-----5----------3-----5-----7-|
C|--8---10---0--------8----10----7------|Which ever|--3-----5-----0----3-----5-----7-|
G|--8---10---0--------8----10----5------|you prefer|--1-----3-----0----1-----3-----5-|
C|--8---10---0--------8----10----0------|          |--------------0----------------0-|



Chorus
D|-----------------------------------|-----------------------------------------------|
A|-----------------------------------|-----------------------------------------------|
F|-----------------------------------|-----------------------------------------------|
C|----------(X2)---------------------|----------------(X2)---------------------------|
G|-5-5-5-5-5-5-5-5-5555555555555555--|--5555555555555555-5-55-5-5-55-5-5-55-5-5-55-5-|
C|-0-0-0-0-0-0-0-0-8888888888888888--|--0000000000000000-8-88-8-8-88-8-8-88-8-8-88-8-|



Breakdown
D|--------------------------------------------------------------|
A|--------------------------------------------------------------|
F|-------------------------(X2)---------------------------------|
C|---0-0-0-00-00-00-00-00-000-000-0-0-0-00-00-00-00-00-000-0-0--|
G|---0-0-0-00-00-00-00-00-000-000-0-0-0-00-00-00-00-00-000-0-0--|
C|---0-0-0-00-00-00-00-00-000-000-0-0-0-00-00-00-00-00-000-0-0--|
     . . . .. .. .. .. .. ... ... . . . .. .. .. .. .. ... . .
D|--------------------------------------------------------------|
A|--------------------------------------------------------------|
F|--------------------------------------------------------------|
C|------------------------000-000----------------------000-0-0--|
G|------------------------000-000----------------------000-0-0--|
C|---0-0-0-00-00-00-00-00-000-000-0-0-0-00-00-00-00-00-000-0-0--|
                          ... ...                      ... . .
D|--------------------------------------------------------------------|
A|--------------------------------------------------------------------|
F|--------------------------------------------------------------------|
C|---0-0-0-00-00-00-00-00-000-000-0-0-0-00-00-00-00-00-000-0-0----0---|
G|---0-0-0-00-00-00-00-00-000-000-0-0-0-00-00-00-00-00-000-0-0----0---|
C|---0-0-0-00-00-00-00-00-000-000-0-0-0-00-00-00-00-00-000-0-0----0---|
     . . . .. .. .. .. .. ... ... . . . .. .. .. .. .. ... . .



Clean part
D|-----------------|
A|--6--Just keep---|
F|--5--Strumming---|
C|-----------------|
G|-----------------|
C|-----------------|



Chorus
D|-----------------------------------|-----------------------------------------------|
A|-----------------------------------|-----------------------------------------------|
F|-----------------------------------|-----------------------------------------------|
C|----------(X2)---------------------|----------------(X2)---------------------------|
G|-5-5-5-5-5-5-5-5-5555555555555555--|--5555555555555555-5-55-5-5-55-5-5-55-5-5-55-5-|
C|-0-0-0-0-0-0-0-0-8888888888888888--|--0000000000000000-8-88-8-8-88-8-8-88-8-8-88-8-|



Outro                   Guitar 1
D|-----------------------------------|
A|-----------------------------------|
F|-----------------------------------|
C|--0------0-0--------0-----0-0------|
G|--0------0-0--------0-----0-0------|
C|--0------0-0--------0-----0-0------|
    .      . .        .     . .
                        Guitar 2
D|------0----0------------0---0------|
A|----6--------6--------6------------|
F|--7------7-----5----7-----7--------|
C|-----------------------------------|
G|-----------------------------------|
C|-----------------------------------|





Comments


Popular Of Mice And Men tabs & chords
Og Loko 1 Bass Tabs
Westbound And Down Bass Tabs
Farewell To Shady Glade Tabs
Second And Sebring Tabs
Second And Sebring 2 Tabs
Seven Thousand Miles For What Intro Tabs
When You Cant Sleep At Night 2 Tabs
My Understandings Ukulele
Second And Sebring 2 Ukulele
When You Cant Sleep At Night Ukulele


Song lyrics



↑ Back to top | Tablatures and chords are parodies/interpretations of the original songs. You may use it for private study, scholarship, research or language learning purposes only
© 2014 AZChords.com Contact us | Privacy policy | DMCA | Add/correct tabs | Request tabs | Top 50 tabs