» » »

Im A Monster Tabs (ver.1)

Artists:  A B C D E F G H I J K L M N O P Q R S T U V W X Y Z # 

Im A Monster Tabs (ver.1)

Of Mice And Men
Rating:
0/5 (0 votes)

Hard to play? Try these video lessons and learn fast.
                
Tuning: Drop C 

CGCFAD 

Short N’ Sweet(: 

Song Is A f**kin’ Eargasm<3




‘I can’t Stress Enough.. ‘
(0:00 - 0:16)
1st Guitar
|------------------------------------------------------------|    |---|
|------------------------------------------------------------|    |---|
|------------------------------------------------------------| x2 |---|
|------------------------------------------------------------|    |---|
|------------------------------------------------------0-000-|    |-0-|
|-19b-0"-13b-0"-19b-0"-13b-00-10"-19b-0"-13b-0"-19b-0"-1-111-|    |-1-|
                                                       . ...

2nd Guitar
|-----------------|    |-----|
|-----------------|    |-----|
|-----------------| x2 |-----|
|-12"-13"-17"-13"-|    |-12~-|
|-----------------|    |-----|
|-----------------|    |-----|


‘For Every BackStabbing Lie.. ‘
(0:16 - 0:24)
1st Guitar
|------------------------------------------------------------|
|------------------------------------------------------------|
|------------------------------------------------------------|
|------------------------------------------------------------|
|-0000000000000000000000000000000000000000000000000000000000-|
|-1111111111111111111111111111111111111111111111111111111111-|
  .........................................................

2nd Guitar
|------------------------------------------------------------|
|------------------------------------------------------------|
|------------------------------------------------------------|
|------------------------------------------------------------|
|-------------------------------------0000000000000000000000-|
|-------------------------------------1111111111111111111111-|
                                      .....................

‘GO.. ‘
(0:24 - 0:40)
Both Guitar’s
|-----------------------------------------------------------------|
|-----------------------------------------------------------------|
|-----------------------------------------------------------------| x2
|-------------------------------------------------4---3---1---131-|
|-0--0-0000-0000-0--0-0000-0000-0--0-0000-0000-00-4-0-3-0-1-0-131-|
|-1--1-1111-1111-1--1-1111-1111-1--1-1111-1111-00-4-0-3-0-1-0-131-|
     . .... ....    . .... ....    . .... .... ..   .   .   .


‘There’s NoWhere To Hide.. ‘
(0:40 - 0:56)
1st Guitar
|------------------------------------------------------------|   
|------------------------------------------------------------|   
|------------------------------------------------------------| x2 
|------------------------------------------------------------|    
|------------------------------------------------------0-000-|    
|-19b-0"-13b-0"-19b-0"-13b-00-10"-19b-0"-13b-0"-19b-0"-1-111-|    
                                                       . ...


                       ‘I’m A Monster.. ‘
                       (0:56 - 0:59) 
2nd Guitar              Both Guitar’s
|-----------------|    |---------------|
|-----------------|    |---------------|
|-----------------| x2 |---------------|
|-12"-13"-17"-13"-|    |---------------|
|-----------------|    |-0000-0000-0-0-|
|-----------------|    |-1111-1111-1-1-|
                         .... .... . 


‘I’m So Sick Of Your Kind.. ‘ ’I’m So Sick Of Your Kind.. ‘
(0:59 - 1:07)                 (1:07 - 1:15)
Both Guitar’s                  Both Guitars’
|------------------------|    |----------------------|
|------------------------|    |----------------------|
|------------------------| x2 |----------------------| x2
|------------------------|    |----------------------|
|------------------------|    |----------------------|
|-0"-0"-0"-0"-0"-13b-13b-|    |-1"-1"-1"-1"-1"-2b-2b-|


‘Im A F****n Monster.. “                 ‘Monster.. ‘
(1:15 - 1:31)                            (1:23 - 1:31) 
 Both Guitar’s                            2nd Guitar
|-----------------------------------|    |--------------------------|
|-----------------------------------|    |--------------------------|
|-----------------------------------| x4 |--------------------------|
|-----------------------------------|    |-13"-12"b(TremoloAndBend)-|
|-00-00-00-00-00-00-000-00-00-00-00-|    |--------------------------|
|-11-11-11-11-11-11-111-11-11-11-11-|    |--------------------------|
  .. .. .. .. .. .. ... .. .. .. .. 
                        (On 3rd And 4th repeat 2nd Guitar Plays This^)


‘I Swear, Ther’s NowWhere To Hide.. ‘
(1:31 - 1:47)
1st Guitar
|------------------------------------------------------------|   
|------------------------------------------------------------|   
|------------------------------------------------------------| x2 
|------------------------------------------------------------|    
|------------------------------------------------------0-000-|    
|-19b-0"-13b-0"-19b-0"-13b-00-10"-19b-0"-13b-0"-19b-0"-1-111-|    
                                                       . ...

2nd Guitar              
|---------------------------------|   
|---------------------------------|    
|-----------------19"-20"-24"-20"-|
|-12"-13"-17"-13"-----------------|   
|---------------------------------|    
|---------------------------------|    


‘For Every backstabbing Lie And The Whisper’s.. ‘
(1:47 - 2:00)
1st Guitar
|--------------------------------------------------|
|--------------------------------------------------|
|--------------------------------------------------|
|--------------------------------------------------|
|-000000000000000000000000000000000000000000000000-|
|-111111111111111111111111111111111111111111111111-|
  ...............................................


2nd Guitar
|-----------------|
|-------------22"-|
|-19"-20"-24"-----| END
|-----------------|
|-----------------|
|-----------------|





Please Comment/Correct/Rate(:
            
Hard to play? Try these video lessons and learn fast. | Correct




comments powered by Disqus
↑ Back to top | Tablatures and chords are parodies/interpretations of the original songs. You may use it for private study, scholarship, research or language learning purposes only